ISO-10303-21;
HEADER;
/* Generated by software containing ST-Developer
 * from STEP Tools, Inc. (www.steptools.com) 
 */
/* OPTION: strings as raw bytes, not using required /X/ escapes */

FILE_DESCRIPTION(
/* description */ ('Unknown'),
/* implementation_level */ '2;1');

FILE_NAME(
/* name */ '710000000027',
/* time_stamp */ '2021-05-28T11:50:03+02:00',
/* author */ ('Unknown'),
/* organization */ ('Unknown'),
/* preprocessor_version */ 'ST-DEVELOPER v16.7',
/* originating_system */ 'Solid Edge',
/* authorisation */ 'Unknown');

FILE_SCHEMA (('AUTOMOTIVE_DESIGN {1 0 10303 214 3 1 1}'));
ENDSEC;

DATA;
#10=PROPERTY_DEFINITION_REPRESENTATION(#14,#12);
#11=PROPERTY_DEFINITION_REPRESENTATION(#15,#13);
#12=REPRESENTATION('',(#16),#450);
#13=REPRESENTATION('',(#17),#450);
#14=PROPERTY_DEFINITION('pmi validation property','',#455);
#15=PROPERTY_DEFINITION('pmi validation property','',#455);
#16=VALUE_REPRESENTATION_ITEM('number of annotations',COUNT_MEASURE(0.));
#17=VALUE_REPRESENTATION_ITEM('number of views',COUNT_MEASURE(0.));
#18=SHAPE_REPRESENTATION_RELATIONSHIP('','',#314,#19);
#19=ADVANCED_BREP_SHAPE_REPRESENTATION('',(#312),#450);
#20=CYLINDRICAL_SURFACE('',#323,6.);
#21=CYLINDRICAL_SURFACE('',#334,1.35);
#22=LINE('',#402,#40);
#23=LINE('',#405,#41);
#24=LINE('',#407,#42);
#25=LINE('',#409,#43);
#26=LINE('',#411,#44);
#27=LINE('',#413,#45);
#28=LINE('',#422,#46);
#29=LINE('',#424,#47);
#30=LINE('',#426,#48);
#31=LINE('',#428,#49);
#32=LINE('',#430,#50);
#33=LINE('',#432,#51);
#34=LINE('',#434,#52);
#35=LINE('',#436,#53);
#36=LINE('',#438,#54);
#37=LINE('',#440,#55);
#38=LINE('',#442,#56);
#39=LINE('',#444,#57);
#40=VECTOR('',#347,1000.);
#41=VECTOR('',#348,1000.);
#42=VECTOR('',#349,1000.);
#43=VECTOR('',#350,1000.);
#44=VECTOR('',#351,1000.);
#45=VECTOR('',#352,1000.);
#46=VECTOR('',#365,1000.);
#47=VECTOR('',#366,1000.);
#48=VECTOR('',#367,1000.);
#49=VECTOR('',#370,1000.);
#50=VECTOR('',#371,1000.);
#51=VECTOR('',#374,1000.);
#52=VECTOR('',#375,1000.);
#53=VECTOR('',#378,1000.);
#54=VECTOR('',#379,1000.);
#55=VECTOR('',#382,1000.);
#56=VECTOR('',#383,1000.);
#57=VECTOR('',#386,1000.);
#58=PLANE('',#319);
#59=PLANE('',#326);
#60=PLANE('',#327);
#61=PLANE('',#328);
#62=PLANE('',#329);
#63=PLANE('',#330);
#64=PLANE('',#331);
#65=PLANE('',#332);
#66=ORIENTED_EDGE('',*,*,#114,.T.);
#67=ORIENTED_EDGE('',*,*,#115,.F.);
#68=ORIENTED_EDGE('',*,*,#116,.F.);
#69=ORIENTED_EDGE('',*,*,#117,.T.);
#70=ORIENTED_EDGE('',*,*,#118,.T.);
#71=ORIENTED_EDGE('',*,*,#119,.T.);
#72=ORIENTED_EDGE('',*,*,#120,.T.);
#73=ORIENTED_EDGE('',*,*,#121,.T.);
#74=ORIENTED_EDGE('',*,*,#122,.T.);
#75=ORIENTED_EDGE('',*,*,#123,.F.);
#76=ORIENTED_EDGE('',*,*,#116,.T.);
#77=ORIENTED_EDGE('',*,*,#124,.F.);
#78=ORIENTED_EDGE('',*,*,#123,.T.);
#79=ORIENTED_EDGE('',*,*,#114,.F.);
#80=ORIENTED_EDGE('',*,*,#124,.T.);
#81=ORIENTED_EDGE('',*,*,#117,.F.);
#82=ORIENTED_EDGE('',*,*,#125,.F.);
#83=ORIENTED_EDGE('',*,*,#126,.T.);
#84=ORIENTED_EDGE('',*,*,#127,.T.);
#85=ORIENTED_EDGE('',*,*,#118,.F.);
#86=ORIENTED_EDGE('',*,*,#127,.F.);
#87=ORIENTED_EDGE('',*,*,#128,.T.);
#88=ORIENTED_EDGE('',*,*,#129,.T.);
#89=ORIENTED_EDGE('',*,*,#119,.F.);
#90=ORIENTED_EDGE('',*,*,#129,.F.);
#91=ORIENTED_EDGE('',*,*,#130,.T.);
#92=ORIENTED_EDGE('',*,*,#131,.T.);
#93=ORIENTED_EDGE('',*,*,#120,.F.);
#94=ORIENTED_EDGE('',*,*,#131,.F.);
#95=ORIENTED_EDGE('',*,*,#132,.T.);
#96=ORIENTED_EDGE('',*,*,#133,.T.);
#97=ORIENTED_EDGE('',*,*,#121,.F.);
#98=ORIENTED_EDGE('',*,*,#133,.F.);
#99=ORIENTED_EDGE('',*,*,#134,.T.);
#100=ORIENTED_EDGE('',*,*,#135,.T.);
#101=ORIENTED_EDGE('',*,*,#122,.F.);
#102=ORIENTED_EDGE('',*,*,#135,.F.);
#103=ORIENTED_EDGE('',*,*,#136,.T.);
#104=ORIENTED_EDGE('',*,*,#125,.T.);
#105=ORIENTED_EDGE('',*,*,#137,.F.);
#106=ORIENTED_EDGE('',*,*,#126,.F.);
#107=ORIENTED_EDGE('',*,*,#136,.F.);
#108=ORIENTED_EDGE('',*,*,#134,.F.);
#109=ORIENTED_EDGE('',*,*,#132,.F.);
#110=ORIENTED_EDGE('',*,*,#130,.F.);
#111=ORIENTED_EDGE('',*,*,#128,.F.);
#112=ORIENTED_EDGE('',*,*,#115,.T.);
#113=ORIENTED_EDGE('',*,*,#137,.T.);
#114=EDGE_CURVE('',#138,#138,#156,.T.);
#115=EDGE_CURVE('',#139,#139,#157,.T.);
#116=EDGE_CURVE('',#140,#140,#158,.T.);
#117=EDGE_CURVE('',#141,#142,#22,.T.);
#118=EDGE_CURVE('',#142,#143,#23,.T.);
#119=EDGE_CURVE('',#143,#144,#24,.T.);
#120=EDGE_CURVE('',#144,#145,#25,.T.);
#121=EDGE_CURVE('',#145,#146,#26,.T.);
#122=EDGE_CURVE('',#146,#141,#27,.T.);
#123=EDGE_CURVE('',#147,#147,#159,.T.);
#124=EDGE_CURVE('',#148,#148,#160,.T.);
#125=EDGE_CURVE('',#149,#141,#28,.T.);
#126=EDGE_CURVE('',#149,#150,#29,.T.);
#127=EDGE_CURVE('',#150,#142,#30,.T.);
#128=EDGE_CURVE('',#150,#151,#31,.T.);
#129=EDGE_CURVE('',#151,#143,#32,.T.);
#130=EDGE_CURVE('',#151,#152,#33,.T.);
#131=EDGE_CURVE('',#152,#144,#34,.T.);
#132=EDGE_CURVE('',#152,#153,#35,.T.);
#133=EDGE_CURVE('',#153,#145,#36,.T.);
#134=EDGE_CURVE('',#153,#154,#37,.T.);
#135=EDGE_CURVE('',#154,#146,#38,.T.);
#136=EDGE_CURVE('',#154,#149,#39,.T.);
#137=EDGE_CURVE('',#155,#155,#161,.F.);
#138=VERTEX_POINT('',#396);
#139=VERTEX_POINT('',#398);
#140=VERTEX_POINT('',#401);
#141=VERTEX_POINT('',#403);
#142=VERTEX_POINT('',#404);
#143=VERTEX_POINT('',#406);
#144=VERTEX_POINT('',#408);
#145=VERTEX_POINT('',#410);
#146=VERTEX_POINT('',#412);
#147=VERTEX_POINT('',#416);
#148=VERTEX_POINT('',#419);
#149=VERTEX_POINT('',#423);
#150=VERTEX_POINT('',#425);
#151=VERTEX_POINT('',#429);
#152=VERTEX_POINT('',#433);
#153=VERTEX_POINT('',#437);
#154=VERTEX_POINT('',#441);
#155=VERTEX_POINT('',#447);
#156=CIRCLE('',#317,3.);
#157=CIRCLE('',#318,1.35);
#158=CIRCLE('',#320,4.9265);
#159=CIRCLE('',#322,6.);
#160=CIRCLE('',#324,6.);
#161=CIRCLE('',#333,1.35);
#162=EDGE_LOOP('',(#66));
#163=EDGE_LOOP('',(#67));
#164=EDGE_LOOP('',(#68));
#165=EDGE_LOOP('',(#69,#70,#71,#72,#73,#74));
#166=EDGE_LOOP('',(#75));
#167=EDGE_LOOP('',(#76));
#168=EDGE_LOOP('',(#77));
#169=EDGE_LOOP('',(#78));
#170=EDGE_LOOP('',(#79));
#171=EDGE_LOOP('',(#80));
#172=EDGE_LOOP('',(#81,#82,#83,#84));
#173=EDGE_LOOP('',(#85,#86,#87,#88));
#174=EDGE_LOOP('',(#89,#90,#91,#92));
#175=EDGE_LOOP('',(#93,#94,#95,#96));
#176=EDGE_LOOP('',(#97,#98,#99,#100));
#177=EDGE_LOOP('',(#101,#102,#103,#104));
#178=EDGE_LOOP('',(#105));
#179=EDGE_LOOP('',(#106,#107,#108,#109,#110,#111));
#180=EDGE_LOOP('',(#112));
#181=EDGE_LOOP('',(#113));
#182=FACE_BOUND('',#162,.T.);
#183=FACE_BOUND('',#163,.T.);
#184=FACE_BOUND('',#164,.T.);
#185=FACE_BOUND('',#165,.T.);
#186=FACE_BOUND('',#166,.T.);
#187=FACE_BOUND('',#167,.T.);
#188=FACE_BOUND('',#168,.T.);
#189=FACE_BOUND('',#169,.T.);
#190=FACE_BOUND('',#170,.T.);
#191=FACE_BOUND('',#171,.T.);
#192=FACE_BOUND('',#172,.T.);
#193=FACE_BOUND('',#173,.T.);
#194=FACE_BOUND('',#174,.T.);
#195=FACE_BOUND('',#175,.T.);
#196=FACE_BOUND('',#176,.T.);
#197=FACE_BOUND('',#177,.T.);
#198=FACE_BOUND('',#178,.T.);
#199=FACE_BOUND('',#179,.T.);
#200=FACE_BOUND('',#180,.T.);
#201=FACE_BOUND('',#181,.T.);
#202=CONICAL_SURFACE('',#316,3.,1.04719755119657);
#203=CONICAL_SURFACE('',#321,4.9265,0.785398163397448);
#204=CONICAL_SURFACE('',#325,6.,0.785398163397449);
#205=STYLED_ITEM('',(#218),#298);
#206=STYLED_ITEM('',(#219),#299);
#207=STYLED_ITEM('',(#220),#300);
#208=STYLED_ITEM('',(#221),#301);
#209=STYLED_ITEM('',(#222),#302);
#210=STYLED_ITEM('',(#223),#303);
#211=STYLED_ITEM('',(#224),#304);
#212=STYLED_ITEM('',(#225),#305);
#213=STYLED_ITEM('',(#226),#306);
#214=STYLED_ITEM('',(#227),#307);
#215=STYLED_ITEM('',(#228),#308);
#216=STYLED_ITEM('',(#229),#309);
#217=STYLED_ITEM('',(#230),#310);
#218=PRESENTATION_STYLE_ASSIGNMENT((#231));
#219=PRESENTATION_STYLE_ASSIGNMENT((#232));
#220=PRESENTATION_STYLE_ASSIGNMENT((#233));
#221=PRESENTATION_STYLE_ASSIGNMENT((#234));
#222=PRESENTATION_STYLE_ASSIGNMENT((#235));
#223=PRESENTATION_STYLE_ASSIGNMENT((#236));
#224=PRESENTATION_STYLE_ASSIGNMENT((#237));
#225=PRESENTATION_STYLE_ASSIGNMENT((#238));
#226=PRESENTATION_STYLE_ASSIGNMENT((#239));
#227=PRESENTATION_STYLE_ASSIGNMENT((#240));
#228=PRESENTATION_STYLE_ASSIGNMENT((#241));
#229=PRESENTATION_STYLE_ASSIGNMENT((#242));
#230=PRESENTATION_STYLE_ASSIGNMENT((#243));
#231=SURFACE_STYLE_USAGE(.BOTH.,#244);
#232=SURFACE_STYLE_USAGE(.BOTH.,#245);
#233=SURFACE_STYLE_USAGE(.BOTH.,#246);
#234=SURFACE_STYLE_USAGE(.BOTH.,#247);
#235=SURFACE_STYLE_USAGE(.BOTH.,#248);
#236=SURFACE_STYLE_USAGE(.BOTH.,#249);
#237=SURFACE_STYLE_USAGE(.BOTH.,#250);
#238=SURFACE_STYLE_USAGE(.BOTH.,#251);
#239=SURFACE_STYLE_USAGE(.BOTH.,#252);
#240=SURFACE_STYLE_USAGE(.BOTH.,#253);
#241=SURFACE_STYLE_USAGE(.BOTH.,#254);
#242=SURFACE_STYLE_USAGE(.BOTH.,#255);
#243=SURFACE_STYLE_USAGE(.BOTH.,#256);
#244=SURFACE_SIDE_STYLE('',(#257));
#245=SURFACE_SIDE_STYLE('',(#258));
#246=SURFACE_SIDE_STYLE('',(#259));
#247=SURFACE_SIDE_STYLE('',(#260));
#248=SURFACE_SIDE_STYLE('',(#261));
#249=SURFACE_SIDE_STYLE('',(#262));
#250=SURFACE_SIDE_STYLE('',(#263));
#251=SURFACE_SIDE_STYLE('',(#264));
#252=SURFACE_SIDE_STYLE('',(#265));
#253=SURFACE_SIDE_STYLE('',(#266));
#254=SURFACE_SIDE_STYLE('',(#267));
#255=SURFACE_SIDE_STYLE('',(#268));
#256=SURFACE_SIDE_STYLE('',(#269));
#257=SURFACE_STYLE_FILL_AREA(#270);
#258=SURFACE_STYLE_FILL_AREA(#271);
#259=SURFACE_STYLE_FILL_AREA(#272);
#260=SURFACE_STYLE_FILL_AREA(#273);
#261=SURFACE_STYLE_FILL_AREA(#274);
#262=SURFACE_STYLE_FILL_AREA(#275);
#263=SURFACE_STYLE_FILL_AREA(#276);
#264=SURFACE_STYLE_FILL_AREA(#277);
#265=SURFACE_STYLE_FILL_AREA(#278);
#266=SURFACE_STYLE_FILL_AREA(#279);
#267=SURFACE_STYLE_FILL_AREA(#280);
#268=SURFACE_STYLE_FILL_AREA(#281);
#269=SURFACE_STYLE_FILL_AREA(#282);
#270=FILL_AREA_STYLE('',(#283));
#271=FILL_AREA_STYLE('',(#284));
#272=FILL_AREA_STYLE('',(#285));
#273=FILL_AREA_STYLE('',(#286));
#274=FILL_AREA_STYLE('',(#287));
#275=FILL_AREA_STYLE('',(#288));
#276=FILL_AREA_STYLE('',(#289));
#277=FILL_AREA_STYLE('',(#290));
#278=FILL_AREA_STYLE('',(#291));
#279=FILL_AREA_STYLE('',(#292));
#280=FILL_AREA_STYLE('',(#293));
#281=FILL_AREA_STYLE('',(#294));
#282=FILL_AREA_STYLE('',(#295));
#283=FILL_AREA_STYLE_COLOUR('',#296);
#284=FILL_AREA_STYLE_COLOUR('',#296);
#285=FILL_AREA_STYLE_COLOUR('',#296);
#286=FILL_AREA_STYLE_COLOUR('',#297);
#287=FILL_AREA_STYLE_COLOUR('',#296);
#288=FILL_AREA_STYLE_COLOUR('',#296);
#289=FILL_AREA_STYLE_COLOUR('',#296);
#290=FILL_AREA_STYLE_COLOUR('',#296);
#291=FILL_AREA_STYLE_COLOUR('',#296);
#292=FILL_AREA_STYLE_COLOUR('',#296);
#293=FILL_AREA_STYLE_COLOUR('',#296);
#294=FILL_AREA_STYLE_COLOUR('',#296);
#295=FILL_AREA_STYLE_COLOUR('',#296);
#296=COLOUR_RGB('',0.752941191196442,0.752941191196442,0.752941191196442);
#297=COLOUR_RGB('',0.396078497171402,0.941176474094391,0.450980395078659);
#298=ADVANCED_FACE('',(#182,#183),#202,.F.);
#299=ADVANCED_FACE('',(#184,#185),#58,.F.);
#300=ADVANCED_FACE('',(#186,#187),#203,.T.);
#301=ADVANCED_FACE('',(#188,#189),#20,.T.);
#302=ADVANCED_FACE('',(#190,#191),#204,.T.);
#303=ADVANCED_FACE('',(#192),#59,.T.);
#304=ADVANCED_FACE('',(#193),#60,.T.);
#305=ADVANCED_FACE('',(#194),#61,.T.);
#306=ADVANCED_FACE('',(#195),#62,.T.);
#307=ADVANCED_FACE('',(#196),#63,.T.);
#308=ADVANCED_FACE('',(#197),#64,.T.);
#309=ADVANCED_FACE('',(#198,#199),#65,.F.);
#310=ADVANCED_FACE('',(#200,#201),#21,.F.);
#311=CLOSED_SHELL('',(#298,#299,#300,#301,#302,#303,#304,#305,#306,#307,
#308,#309,#310));
#312=MANIFOLD_SOLID_BREP('',#311);
#313=SHAPE_DEFINITION_REPRESENTATION(#455,#314);
#314=SHAPE_REPRESENTATION(
'27213_71000000002_Wasserreduzierdüse_2_7_mm__20____-_00467176',(#315),
#450);
#315=AXIS2_PLACEMENT_3D('',#393,#335,#336);
#316=AXIS2_PLACEMENT_3D('',#394,#337,#338);
#317=AXIS2_PLACEMENT_3D('',#395,#339,#340);
#318=AXIS2_PLACEMENT_3D('',#397,#341,#342);
#319=AXIS2_PLACEMENT_3D('',#399,#343,#344);
#320=AXIS2_PLACEMENT_3D('',#400,#345,#346);
#321=AXIS2_PLACEMENT_3D('',#414,#353,#354);
#322=AXIS2_PLACEMENT_3D('',#415,#355,#356);
#323=AXIS2_PLACEMENT_3D('',#417,#357,#358);
#324=AXIS2_PLACEMENT_3D('',#418,#359,#360);
#325=AXIS2_PLACEMENT_3D('',#420,#361,#362);
#326=AXIS2_PLACEMENT_3D('',#421,#363,#364);
#327=AXIS2_PLACEMENT_3D('',#427,#368,#369);
#328=AXIS2_PLACEMENT_3D('',#431,#372,#373);
#329=AXIS2_PLACEMENT_3D('',#435,#376,#377);
#330=AXIS2_PLACEMENT_3D('',#439,#380,#381);
#331=AXIS2_PLACEMENT_3D('',#443,#384,#385);
#332=AXIS2_PLACEMENT_3D('',#445,#387,#388);
#333=AXIS2_PLACEMENT_3D('',#446,#389,#390);
#334=AXIS2_PLACEMENT_3D('',#448,#391,#392);
#335=DIRECTION('',(0.,0.,1.));
#336=DIRECTION('',(1.,0.,0.));
#337=DIRECTION('',(1.,0.,0.));
#338=DIRECTION('',(0.,0.,-1.));
#339=DIRECTION('',(1.,0.,0.));
#340=DIRECTION('',(0.,0.,-1.));
#341=DIRECTION('',(1.,0.,0.));
#342=DIRECTION('',(0.,0.,-1.));
#343=DIRECTION('',(1.,0.,0.));
#344=DIRECTION('',(0.,0.,-1.));
#345=DIRECTION('',(1.,0.,0.));
#346=DIRECTION('',(0.,0.,-1.));
#347=DIRECTION('',(-6.12303176911189E-17,-1.,0.));
#348=DIRECTION('',(-3.06151588455597E-17,-0.500000000000005,-0.866025403784436));
#349=DIRECTION('',(3.06151588455597E-17,0.500000000000005,-0.866025403784436));
#350=DIRECTION('',(6.12303176911189E-17,1.,0.));
#351=DIRECTION('',(3.06151588455597E-17,0.500000000000005,0.866025403784436));
#352=DIRECTION('',(-3.06151588455597E-17,-0.500000000000005,0.866025403784436));
#353=DIRECTION('',(1.,0.,0.));
#354=DIRECTION('',(0.,0.,-1.));
#355=DIRECTION('',(1.,0.,0.));
#356=DIRECTION('',(0.,0.,-1.));
#357=DIRECTION('',(1.,0.,0.));
#358=DIRECTION('',(0.,0.,-1.));
#359=DIRECTION('',(1.,0.,0.));
#360=DIRECTION('',(0.,0.,-1.));
#361=DIRECTION('',(-1.,0.,0.));
#362=DIRECTION('',(0.,0.,1.));
#363=DIRECTION('',(0.,0.,-1.));
#364=DIRECTION('',(-1.,0.,0.));
#365=DIRECTION('',(-1.,0.,0.));
#366=DIRECTION('',(-6.12303176911189E-17,-1.,0.));
#367=DIRECTION('',(-1.,0.,0.));
#368=DIRECTION('',(0.,0.866025403784436,-0.500000000000005));
#369=DIRECTION('',(0.,0.500000000000005,0.866025403784436));
#370=DIRECTION('',(-3.06151588455597E-17,-0.500000000000005,-0.866025403784436));
#371=DIRECTION('',(-1.,0.,0.));
#372=DIRECTION('',(0.,0.866025403784436,0.500000000000005));
#373=DIRECTION('',(0.,-0.500000000000005,0.866025403784436));
#374=DIRECTION('',(3.06151588455597E-17,0.500000000000005,-0.866025403784436));
#375=DIRECTION('',(-1.,0.,0.));
#376=DIRECTION('',(0.,0.,1.));
#377=DIRECTION('',(1.,0.,0.));
#378=DIRECTION('',(6.12303176911189E-17,1.,0.));
#379=DIRECTION('',(-1.,0.,0.));
#380=DIRECTION('',(0.,-0.866025403784436,0.500000000000005));
#381=DIRECTION('',(0.,-0.500000000000005,-0.866025403784436));
#382=DIRECTION('',(3.06151588455597E-17,0.500000000000005,0.866025403784436));
#383=DIRECTION('',(-1.,0.,0.));
#384=DIRECTION('',(0.,-0.866025403784436,-0.500000000000005));
#385=DIRECTION('',(0.,0.500000000000005,-0.866025403784436));
#386=DIRECTION('',(-3.06151588455597E-17,-0.500000000000005,0.866025403784436));
#387=DIRECTION('',(1.,-6.12303176911189E-17,0.));
#388=DIRECTION('',(6.12303176911189E-17,1.,0.));
#389=DIRECTION('',(1.,-6.12303176911189E-17,0.));
#390=DIRECTION('',(6.12303176911189E-17,1.,0.));
#391=DIRECTION('',(-1.,0.,0.));
#392=DIRECTION('',(0.,0.,1.));
#393=CARTESIAN_POINT('',(0.,0.,0.));
#394=CARTESIAN_POINT('',(16.,0.,0.));
#395=CARTESIAN_POINT('',(16.,0.,0.));
#396=CARTESIAN_POINT('',(16.,0.,-3.));
#397=CARTESIAN_POINT('',(15.047372055837,0.,0.));
#398=CARTESIAN_POINT('',(15.047372055837,0.,-1.35));
#399=CARTESIAN_POINT('',(0.,0.,0.));
#400=CARTESIAN_POINT('',(0.,0.,0.));
#401=CARTESIAN_POINT('',(0.,0.,-4.9265));
#402=CARTESIAN_POINT('',(1.06054021204603E-16,1.7320508075689,3.));
#403=CARTESIAN_POINT('',(0.,1.7320508075689,3.));
#404=CARTESIAN_POINT('',(-1.06054021204603E-16,-1.7320508075689,3.));
#405=CARTESIAN_POINT('',(-1.06054021204603E-16,-1.7320508075689,3.));
#406=CARTESIAN_POINT('',(-2.12108042409206E-16,-3.4641016151378,-4.33680868994202E-16));
#407=CARTESIAN_POINT('',(-2.12108042409205E-16,-3.4641016151378,0.));
#408=CARTESIAN_POINT('',(-1.06054021204603E-16,-1.7320508075689,-3.));
#409=CARTESIAN_POINT('',(-1.06054021204603E-16,-1.7320508075689,-3.));
#410=CARTESIAN_POINT('',(1.06054021204603E-16,1.7320508075689,-3.));
#411=CARTESIAN_POINT('',(1.06054021204603E-16,1.7320508075689,-3.));
#412=CARTESIAN_POINT('',(2.12108042409206E-16,3.4641016151378,4.33680868994202E-16));
#413=CARTESIAN_POINT('',(2.12108042409205E-16,3.4641016151378,0.));
#414=CARTESIAN_POINT('',(0.,0.,0.));
#415=CARTESIAN_POINT('',(1.0735,0.,0.));
#416=CARTESIAN_POINT('',(1.0735,0.,-6.));
#417=CARTESIAN_POINT('',(16.,0.,0.));
#418=CARTESIAN_POINT('',(13.,0.,0.));
#419=CARTESIAN_POINT('',(13.,0.,-6.));
#420=CARTESIAN_POINT('',(13.,0.,0.));
#421=CARTESIAN_POINT('',(8.,1.7320508075689,3.));
#422=CARTESIAN_POINT('',(8.,1.7320508075689,3.));
#423=CARTESIAN_POINT('',(8.,1.7320508075689,3.));
#424=CARTESIAN_POINT('',(8.,1.7320508075689,3.));
#425=CARTESIAN_POINT('',(8.,-1.7320508075689,3.));
#426=CARTESIAN_POINT('',(8.,-1.7320508075689,3.));
#427=CARTESIAN_POINT('',(8.,-1.7320508075689,3.));
#428=CARTESIAN_POINT('',(8.,-1.7320508075689,3.));
#429=CARTESIAN_POINT('',(8.,-3.4641016151378,-4.33680868994202E-16));
#430=CARTESIAN_POINT('',(8.,-3.4641016151378,-4.33680868994202E-16));
#431=CARTESIAN_POINT('',(8.,-3.4641016151378,0.));
#432=CARTESIAN_POINT('',(8.,-3.4641016151378,0.));
#433=CARTESIAN_POINT('',(8.,-1.7320508075689,-3.));
#434=CARTESIAN_POINT('',(8.,-1.7320508075689,-3.));
#435=CARTESIAN_POINT('',(8.,-1.7320508075689,-3.));
#436=CARTESIAN_POINT('',(8.,-1.7320508075689,-3.));
#437=CARTESIAN_POINT('',(8.,1.7320508075689,-3.));
#438=CARTESIAN_POINT('',(8.,1.7320508075689,-3.));
#439=CARTESIAN_POINT('',(8.,1.7320508075689,-3.));
#440=CARTESIAN_POINT('',(8.,1.7320508075689,-3.));
#441=CARTESIAN_POINT('',(8.,3.4641016151378,4.33680868994202E-16));
#442=CARTESIAN_POINT('',(8.,3.4641016151378,4.33680868994202E-16));
#443=CARTESIAN_POINT('',(8.,3.4641016151378,0.));
#444=CARTESIAN_POINT('',(8.,3.4641016151378,0.));
#445=CARTESIAN_POINT('',(8.,1.47406627932087E-48,0.));
#446=CARTESIAN_POINT('',(8.,0.,0.));
#447=CARTESIAN_POINT('',(8.,1.35,0.));
#448=CARTESIAN_POINT('',(23.3238075793812,0.,0.));
#449=MECHANICAL_DESIGN_GEOMETRIC_PRESENTATION_REPRESENTATION('',(#205,#206,
#207,#208,#209,#210,#211,#212,#213,#214,#215,#216,#217),#450);
#450=(
GEOMETRIC_REPRESENTATION_CONTEXT(3)
GLOBAL_UNCERTAINTY_ASSIGNED_CONTEXT((#451))
GLOBAL_UNIT_ASSIGNED_CONTEXT((#454,#453,#452))
REPRESENTATION_CONTEXT(
'27213_71000000002_Wasserreduzierdüse_2_7_mm__20____-_00467176',
'TOP_LEVEL_ASSEMBLY_PART')
);
#451=UNCERTAINTY_MEASURE_WITH_UNIT(LENGTH_MEASURE(0.005),#454,
'DISTANCE_ACCURACY_VALUE','Maximum Tolerance applied to model');
#452=(
NAMED_UNIT(*)
SI_UNIT($,.STERADIAN.)
SOLID_ANGLE_UNIT()
);
#453=(
NAMED_UNIT(*)
PLANE_ANGLE_UNIT()
SI_UNIT($,.RADIAN.)
);
#454=(
LENGTH_UNIT()
NAMED_UNIT(*)
SI_UNIT(.MILLI.,.METRE.)
);
#455=PRODUCT_DEFINITION_SHAPE('','',#456);
#456=PRODUCT_DEFINITION('','',#458,#457);
#457=PRODUCT_DEFINITION_CONTEXT('',#464,'design');
#458=PRODUCT_DEFINITION_FORMATION_WITH_SPECIFIED_SOURCE('','',#460,
 .NOT_KNOWN.);
#459=PRODUCT_RELATED_PRODUCT_CATEGORY('','',(#460));
#460=PRODUCT(
'27213_71000000002_Wasserreduzierdüse_2_7_mm__20____-_00467176',
'27213_71000000002_Wasserreduzierdüse_2_7_mm__20____-_00467176',
'27213_71000000002_Wasserreduzierdüse_2_7_mm__20____-_00467176',(#462));
#461=PRODUCT_CATEGORY('','');
#462=PRODUCT_CONTEXT('',#464,'mechanical');
#463=APPLICATION_PROTOCOL_DEFINITION('international standard',
'automotive_design',2010,#464);
#464=APPLICATION_CONTEXT(
'core data for automotive mechanical design processes');
ENDSEC;
END-ISO-10303-21;
