ISO-10303-21;
HEADER;
/* Generated by software containing ST-Developer
 * from STEP Tools, Inc. (www.steptools.com) 
 */
/* OPTION: strings as raw bytes, not using required /X/ escapes */

FILE_DESCRIPTION(
/* description */ ('Unknown'),
/* implementation_level */ '2;1');

FILE_NAME(
/* name */ '31319',
/* time_stamp */ '2018-11-12T16:57:22+01:00',
/* author */ ('Unknown'),
/* organization */ ('Unknown'),
/* preprocessor_version */ 'ST-DEVELOPER v16.7',
/* originating_system */ 'DEX',
/* authorisation */ $);

FILE_SCHEMA (('AUTOMOTIVE_DESIGN {1 0 10303 214 3 1 1}'));
ENDSEC;

DATA;
#10=PROPERTY_DEFINITION_REPRESENTATION(#14,#12);
#11=PROPERTY_DEFINITION_REPRESENTATION(#15,#13);
#12=REPRESENTATION('',(#16),#517);
#13=REPRESENTATION('',(#17),#517);
#14=PROPERTY_DEFINITION('pmi validation property','',#522);
#15=PROPERTY_DEFINITION('pmi validation property','',#522);
#16=VALUE_REPRESENTATION_ITEM('number of annotations',COUNT_MEASURE(0.));
#17=VALUE_REPRESENTATION_ITEM('number of views',COUNT_MEASURE(0.));
#18=SHAPE_REPRESENTATION_RELATIONSHIP('','',#295,#19);
#19=ADVANCED_BREP_SHAPE_REPRESENTATION('',(#293),#517);
#20=CONICAL_SURFACE('',#310,8.35,0.26179938779915);
#21=CONICAL_SURFACE('',#312,9.6,1.32518852158055);
#22=CONICAL_SURFACE('',#314,8.35,0.245607805214339);
#23=CONICAL_SURFACE('',#317,9.6,1.32518852158056);
#24=CONICAL_SURFACE('',#319,8.35,0.245607805214339);
#25=CONICAL_SURFACE('',#322,9.6,1.32518852158056);
#26=CONICAL_SURFACE('',#324,8.35,0.245607805214339);
#27=CONICAL_SURFACE('',#327,9.25,1.32518852158056);
#28=CONICAL_SURFACE('',#342,7.2,0.785398163397448);
#29=CONICAL_SURFACE('',#343,11.25,0.785398163397448);
#30=CONICAL_SURFACE('',#344,11.75,0.785398163397448);
#31=TOROIDAL_SURFACE('',#306,11.75,0.300000000000002);
#32=TOROIDAL_SURFACE('',#337,8.99343217337062,0.5);
#33=TOROIDAL_SURFACE('',#338,8.99343217337062,0.5);
#34=TOROIDAL_SURFACE('',#339,8.99343217337062,0.5);
#35=TOROIDAL_SURFACE('',#340,8.75,0.5);
#36=TOROIDAL_SURFACE('',#341,8.75,0.5);
#37=CYLINDRICAL_SURFACE('',#300,11.75);
#38=CYLINDRICAL_SURFACE('',#308,11.75);
#39=CYLINDRICAL_SURFACE('',#329,9.25);
#40=CYLINDRICAL_SURFACE('',#335,7.2);
#41=ORIENTED_EDGE('',*,*,#89,.T.);
#42=ORIENTED_EDGE('',*,*,#90,.T.);
#43=ORIENTED_EDGE('',*,*,#91,.T.);
#44=ORIENTED_EDGE('',*,*,#92,.F.);
#45=ORIENTED_EDGE('',*,*,#93,.T.);
#46=ORIENTED_EDGE('',*,*,#94,.T.);
#47=ORIENTED_EDGE('',*,*,#95,.F.);
#48=ORIENTED_EDGE('',*,*,#92,.T.);
#49=ORIENTED_EDGE('',*,*,#96,.T.);
#50=ORIENTED_EDGE('',*,*,#95,.T.);
#51=ORIENTED_EDGE('',*,*,#94,.F.);
#52=ORIENTED_EDGE('',*,*,#97,.T.);
#53=ORIENTED_EDGE('',*,*,#98,.T.);
#54=ORIENTED_EDGE('',*,*,#97,.F.);
#55=ORIENTED_EDGE('',*,*,#99,.T.);
#56=ORIENTED_EDGE('',*,*,#100,.T.);
#57=ORIENTED_EDGE('',*,*,#101,.T.);
#58=ORIENTED_EDGE('',*,*,#100,.F.);
#59=ORIENTED_EDGE('',*,*,#102,.T.);
#60=ORIENTED_EDGE('',*,*,#103,.T.);
#61=ORIENTED_EDGE('',*,*,#104,.T.);
#62=ORIENTED_EDGE('',*,*,#103,.F.);
#63=ORIENTED_EDGE('',*,*,#105,.T.);
#64=ORIENTED_EDGE('',*,*,#106,.T.);
#65=ORIENTED_EDGE('',*,*,#107,.T.);
#66=ORIENTED_EDGE('',*,*,#106,.F.);
#67=ORIENTED_EDGE('',*,*,#108,.T.);
#68=ORIENTED_EDGE('',*,*,#109,.T.);
#69=ORIENTED_EDGE('',*,*,#110,.T.);
#70=ORIENTED_EDGE('',*,*,#111,.T.);
#71=ORIENTED_EDGE('',*,*,#112,.T.);
#72=ORIENTED_EDGE('',*,*,#111,.F.);
#73=ORIENTED_EDGE('',*,*,#105,.F.);
#74=ORIENTED_EDGE('',*,*,#104,.F.);
#75=ORIENTED_EDGE('',*,*,#99,.F.);
#76=ORIENTED_EDGE('',*,*,#98,.F.);
#77=ORIENTED_EDGE('',*,*,#102,.F.);
#78=ORIENTED_EDGE('',*,*,#101,.F.);
#79=ORIENTED_EDGE('',*,*,#109,.F.);
#80=ORIENTED_EDGE('',*,*,#107,.F.);
#81=ORIENTED_EDGE('',*,*,#110,.F.);
#82=ORIENTED_EDGE('',*,*,#108,.F.);
#83=ORIENTED_EDGE('',*,*,#89,.F.);
#84=ORIENTED_EDGE('',*,*,#112,.F.);
#85=ORIENTED_EDGE('',*,*,#96,.F.);
#86=ORIENTED_EDGE('',*,*,#90,.F.);
#87=ORIENTED_EDGE('',*,*,#93,.F.);
#88=ORIENTED_EDGE('',*,*,#91,.F.);
#89=EDGE_CURVE('',#113,#113,#137,.F.);
#90=EDGE_CURVE('',#114,#114,#138,.T.);
#91=EDGE_CURVE('',#115,#115,#139,.F.);
#92=EDGE_CURVE('',#116,#116,#140,.T.);
#93=EDGE_CURVE('',#117,#117,#141,.T.);
#94=EDGE_CURVE('',#118,#118,#142,.T.);
#95=EDGE_CURVE('',#119,#119,#143,.T.);
#96=EDGE_CURVE('',#120,#120,#144,.F.);
#97=EDGE_CURVE('',#121,#121,#145,.T.);
#98=EDGE_CURVE('',#122,#122,#146,.T.);
#99=EDGE_CURVE('',#123,#123,#147,.T.);
#100=EDGE_CURVE('',#124,#124,#148,.T.);
#101=EDGE_CURVE('',#125,#125,#149,.T.);
#102=EDGE_CURVE('',#126,#126,#150,.T.);
#103=EDGE_CURVE('',#127,#127,#151,.T.);
#104=EDGE_CURVE('',#128,#128,#152,.T.);
#105=EDGE_CURVE('',#129,#129,#153,.T.);
#106=EDGE_CURVE('',#130,#130,#154,.T.);
#107=EDGE_CURVE('',#131,#131,#155,.T.);
#108=EDGE_CURVE('',#132,#132,#156,.T.);
#109=EDGE_CURVE('',#133,#133,#157,.F.);
#110=EDGE_CURVE('',#134,#134,#158,.F.);
#111=EDGE_CURVE('',#135,#135,#159,.T.);
#112=EDGE_CURVE('',#136,#136,#160,.T.);
#113=VERTEX_POINT('',#446);
#114=VERTEX_POINT('',#448);
#115=VERTEX_POINT('',#451);
#116=VERTEX_POINT('',#453);
#117=VERTEX_POINT('',#456);
#118=VERTEX_POINT('',#458);
#119=VERTEX_POINT('',#461);
#120=VERTEX_POINT('',#464);
#121=VERTEX_POINT('',#467);
#122=VERTEX_POINT('',#470);
#123=VERTEX_POINT('',#473);
#124=VERTEX_POINT('',#475);
#125=VERTEX_POINT('',#478);
#126=VERTEX_POINT('',#481);
#127=VERTEX_POINT('',#483);
#128=VERTEX_POINT('',#486);
#129=VERTEX_POINT('',#489);
#130=VERTEX_POINT('',#491);
#131=VERTEX_POINT('',#494);
#132=VERTEX_POINT('',#497);
#133=VERTEX_POINT('',#499);
#134=VERTEX_POINT('',#502);
#135=VERTEX_POINT('',#504);
#136=VERTEX_POINT('',#507);
#137=CIRCLE('',#298,7.7);
#138=CIRCLE('',#299,11.25);
#139=CIRCLE('',#301,11.75);
#140=CIRCLE('',#302,11.75);
#141=CIRCLE('',#304,11.25);
#142=CIRCLE('',#305,10.493593539449);
#143=CIRCLE('',#307,11.75);
#144=CIRCLE('',#309,11.75);
#145=CIRCLE('',#311,8.35);
#146=CIRCLE('',#313,9.1150051406074);
#147=CIRCLE('',#315,9.47842703276322);
#148=CIRCLE('',#316,8.35);
#149=CIRCLE('',#318,9.1150051406074);
#150=CIRCLE('',#320,9.47842703276322);
#151=CIRCLE('',#321,8.35);
#152=CIRCLE('',#323,9.1150051406074);
#153=CIRCLE('',#325,9.47842703276322);
#154=CIRCLE('',#326,8.35);
#155=CIRCLE('',#328,8.87157296723678);
#156=CIRCLE('',#330,9.25);
#157=CIRCLE('',#331,9.25);
#158=CIRCLE('',#333,8.75);
#159=CIRCLE('',#334,7.2);
#160=CIRCLE('',#336,7.2);
#161=EDGE_LOOP('',(#41));
#162=EDGE_LOOP('',(#42));
#163=EDGE_LOOP('',(#43));
#164=EDGE_LOOP('',(#44));
#165=EDGE_LOOP('',(#45));
#166=EDGE_LOOP('',(#46));
#167=EDGE_LOOP('',(#47));
#168=EDGE_LOOP('',(#48));
#169=EDGE_LOOP('',(#49));
#170=EDGE_LOOP('',(#50));
#171=EDGE_LOOP('',(#51));
#172=EDGE_LOOP('',(#52));
#173=EDGE_LOOP('',(#53));
#174=EDGE_LOOP('',(#54));
#175=EDGE_LOOP('',(#55));
#176=EDGE_LOOP('',(#56));
#177=EDGE_LOOP('',(#57));
#178=EDGE_LOOP('',(#58));
#179=EDGE_LOOP('',(#59));
#180=EDGE_LOOP('',(#60));
#181=EDGE_LOOP('',(#61));
#182=EDGE_LOOP('',(#62));
#183=EDGE_LOOP('',(#63));
#184=EDGE_LOOP('',(#64));
#185=EDGE_LOOP('',(#65));
#186=EDGE_LOOP('',(#66));
#187=EDGE_LOOP('',(#67));
#188=EDGE_LOOP('',(#68));
#189=EDGE_LOOP('',(#69));
#190=EDGE_LOOP('',(#70));
#191=EDGE_LOOP('',(#71));
#192=EDGE_LOOP('',(#72));
#193=EDGE_LOOP('',(#73));
#194=EDGE_LOOP('',(#74));
#195=EDGE_LOOP('',(#75));
#196=EDGE_LOOP('',(#76));
#197=EDGE_LOOP('',(#77));
#198=EDGE_LOOP('',(#78));
#199=EDGE_LOOP('',(#79));
#200=EDGE_LOOP('',(#80));
#201=EDGE_LOOP('',(#81));
#202=EDGE_LOOP('',(#82));
#203=EDGE_LOOP('',(#83));
#204=EDGE_LOOP('',(#84));
#205=EDGE_LOOP('',(#85));
#206=EDGE_LOOP('',(#86));
#207=EDGE_LOOP('',(#87));
#208=EDGE_LOOP('',(#88));
#209=FACE_BOUND('',#161,.T.);
#210=FACE_BOUND('',#162,.T.);
#211=FACE_BOUND('',#163,.T.);
#212=FACE_BOUND('',#164,.T.);
#213=FACE_BOUND('',#165,.T.);
#214=FACE_BOUND('',#166,.T.);
#215=FACE_BOUND('',#167,.T.);
#216=FACE_BOUND('',#168,.T.);
#217=FACE_BOUND('',#169,.T.);
#218=FACE_BOUND('',#170,.T.);
#219=FACE_BOUND('',#171,.T.);
#220=FACE_BOUND('',#172,.T.);
#221=FACE_BOUND('',#173,.T.);
#222=FACE_BOUND('',#174,.T.);
#223=FACE_BOUND('',#175,.T.);
#224=FACE_BOUND('',#176,.T.);
#225=FACE_BOUND('',#177,.T.);
#226=FACE_BOUND('',#178,.T.);
#227=FACE_BOUND('',#179,.T.);
#228=FACE_BOUND('',#180,.T.);
#229=FACE_BOUND('',#181,.T.);
#230=FACE_BOUND('',#182,.T.);
#231=FACE_BOUND('',#183,.T.);
#232=FACE_BOUND('',#184,.T.);
#233=FACE_BOUND('',#185,.T.);
#234=FACE_BOUND('',#186,.T.);
#235=FACE_BOUND('',#187,.T.);
#236=FACE_BOUND('',#188,.T.);
#237=FACE_BOUND('',#189,.T.);
#238=FACE_BOUND('',#190,.T.);
#239=FACE_BOUND('',#191,.T.);
#240=FACE_BOUND('',#192,.T.);
#241=FACE_BOUND('',#193,.T.);
#242=FACE_BOUND('',#194,.T.);
#243=FACE_BOUND('',#195,.T.);
#244=FACE_BOUND('',#196,.T.);
#245=FACE_BOUND('',#197,.T.);
#246=FACE_BOUND('',#198,.T.);
#247=FACE_BOUND('',#199,.T.);
#248=FACE_BOUND('',#200,.T.);
#249=FACE_BOUND('',#201,.T.);
#250=FACE_BOUND('',#202,.T.);
#251=FACE_BOUND('',#203,.T.);
#252=FACE_BOUND('',#204,.T.);
#253=FACE_BOUND('',#205,.T.);
#254=FACE_BOUND('',#206,.T.);
#255=FACE_BOUND('',#207,.T.);
#256=FACE_BOUND('',#208,.T.);
#257=PLANE('',#297);
#258=PLANE('',#303);
#259=PLANE('',#332);
#260=ADVANCED_FACE('',(#209,#210),#257,.T.);
#261=ADVANCED_FACE('',(#211,#212),#37,.T.);
#262=ADVANCED_FACE('',(#213,#214),#258,.T.);
#263=ADVANCED_FACE('',(#215,#216),#31,.F.);
#264=ADVANCED_FACE('',(#217,#218),#38,.T.);
#265=ADVANCED_FACE('',(#219,#220),#20,.F.);
#266=ADVANCED_FACE('',(#221,#222),#21,.F.);
#267=ADVANCED_FACE('',(#223,#224),#22,.F.);
#268=ADVANCED_FACE('',(#225,#226),#23,.F.);
#269=ADVANCED_FACE('',(#227,#228),#24,.F.);
#270=ADVANCED_FACE('',(#229,#230),#25,.F.);
#271=ADVANCED_FACE('',(#231,#232),#26,.F.);
#272=ADVANCED_FACE('',(#233,#234),#27,.F.);
#273=ADVANCED_FACE('',(#235,#236),#39,.F.);
#274=ADVANCED_FACE('',(#237,#238),#259,.F.);
#275=ADVANCED_FACE('',(#239,#240),#40,.F.);
#276=ADVANCED_FACE('',(#241,#242),#32,.F.);
#277=ADVANCED_FACE('',(#243,#244),#33,.F.);
#278=ADVANCED_FACE('',(#245,#246),#34,.F.);
#279=ADVANCED_FACE('',(#247,#248),#35,.F.);
#280=ADVANCED_FACE('',(#249,#250),#36,.F.);
#281=ADVANCED_FACE('',(#251,#252),#28,.F.);
#282=ADVANCED_FACE('',(#253,#254),#29,.T.);
#283=ADVANCED_FACE('',(#255,#256),#30,.T.);
#284=CLOSED_SHELL('',(#260,#261,#262,#263,#264,#265,#266,#267,#268,#269,
#270,#271,#272,#273,#274,#275,#276,#277,#278,#279,#280,#281,#282,#283));
#285=STYLED_ITEM('',(#286),#293);
#286=PRESENTATION_STYLE_ASSIGNMENT((#287));
#287=SURFACE_STYLE_USAGE(.BOTH.,#288);
#288=SURFACE_SIDE_STYLE('',(#289));
#289=SURFACE_STYLE_FILL_AREA(#290);
#290=FILL_AREA_STYLE('',(#291));
#291=FILL_AREA_STYLE_COLOUR('',#292);
#292=COLOUR_RGB('',0.752941191196442,0.752941191196442,0.752941191196442);
#293=MANIFOLD_SOLID_BREP('',#284);
#294=SHAPE_DEFINITION_REPRESENTATION(#522,#295);
#295=SHAPE_REPRESENTATION('50000031319_Preßfassung',(#296),#517);
#296=AXIS2_PLACEMENT_3D('',#443,#345,#346);
#297=AXIS2_PLACEMENT_3D('',#444,#347,#348);
#298=AXIS2_PLACEMENT_3D('',#445,#349,#350);
#299=AXIS2_PLACEMENT_3D('',#447,#351,#352);
#300=AXIS2_PLACEMENT_3D('',#449,#353,#354);
#301=AXIS2_PLACEMENT_3D('',#450,#355,#356);
#302=AXIS2_PLACEMENT_3D('',#452,#357,#358);
#303=AXIS2_PLACEMENT_3D('',#454,#359,#360);
#304=AXIS2_PLACEMENT_3D('',#455,#361,#362);
#305=AXIS2_PLACEMENT_3D('',#457,#363,#364);
#306=AXIS2_PLACEMENT_3D('',#459,#365,#366);
#307=AXIS2_PLACEMENT_3D('',#460,#367,#368);
#308=AXIS2_PLACEMENT_3D('',#462,#369,#370);
#309=AXIS2_PLACEMENT_3D('',#463,#371,#372);
#310=AXIS2_PLACEMENT_3D('',#465,#373,#374);
#311=AXIS2_PLACEMENT_3D('',#466,#375,#376);
#312=AXIS2_PLACEMENT_3D('',#468,#377,#378);
#313=AXIS2_PLACEMENT_3D('',#469,#379,#380);
#314=AXIS2_PLACEMENT_3D('',#471,#381,#382);
#315=AXIS2_PLACEMENT_3D('',#472,#383,#384);
#316=AXIS2_PLACEMENT_3D('',#474,#385,#386);
#317=AXIS2_PLACEMENT_3D('',#476,#387,#388);
#318=AXIS2_PLACEMENT_3D('',#477,#389,#390);
#319=AXIS2_PLACEMENT_3D('',#479,#391,#392);
#320=AXIS2_PLACEMENT_3D('',#480,#393,#394);
#321=AXIS2_PLACEMENT_3D('',#482,#395,#396);
#322=AXIS2_PLACEMENT_3D('',#484,#397,#398);
#323=AXIS2_PLACEMENT_3D('',#485,#399,#400);
#324=AXIS2_PLACEMENT_3D('',#487,#401,#402);
#325=AXIS2_PLACEMENT_3D('',#488,#403,#404);
#326=AXIS2_PLACEMENT_3D('',#490,#405,#406);
#327=AXIS2_PLACEMENT_3D('',#492,#407,#408);
#328=AXIS2_PLACEMENT_3D('',#493,#409,#410);
#329=AXIS2_PLACEMENT_3D('',#495,#411,#412);
#330=AXIS2_PLACEMENT_3D('',#496,#413,#414);
#331=AXIS2_PLACEMENT_3D('',#498,#415,#416);
#332=AXIS2_PLACEMENT_3D('',#500,#417,#418);
#333=AXIS2_PLACEMENT_3D('',#501,#419,#420);
#334=AXIS2_PLACEMENT_3D('',#503,#421,#422);
#335=AXIS2_PLACEMENT_3D('',#505,#423,#424);
#336=AXIS2_PLACEMENT_3D('',#506,#425,#426);
#337=AXIS2_PLACEMENT_3D('',#508,#427,#428);
#338=AXIS2_PLACEMENT_3D('',#509,#429,#430);
#339=AXIS2_PLACEMENT_3D('',#510,#431,#432);
#340=AXIS2_PLACEMENT_3D('',#511,#433,#434);
#341=AXIS2_PLACEMENT_3D('',#512,#435,#436);
#342=AXIS2_PLACEMENT_3D('',#513,#437,#438);
#343=AXIS2_PLACEMENT_3D('',#514,#439,#440);
#344=AXIS2_PLACEMENT_3D('',#515,#441,#442);
#345=DIRECTION('',(0.,0.,1.));
#346=DIRECTION('',(1.,0.,0.));
#347=DIRECTION('',(-1.,0.,0.));
#348=DIRECTION('',(0.,0.,1.));
#349=DIRECTION('',(-1.,0.,0.));
#350=DIRECTION('',(0.,0.,1.));
#351=DIRECTION('',(-1.,0.,0.));
#352=DIRECTION('',(0.,0.,1.));
#353=DIRECTION('',(-1.,0.,0.));
#354=DIRECTION('',(0.,0.,1.));
#355=DIRECTION('',(1.,0.,0.));
#356=DIRECTION('',(0.,0.,-1.));
#357=DIRECTION('',(-1.,0.,0.));
#358=DIRECTION('',(0.,0.,1.));
#359=DIRECTION('',(1.,0.,0.));
#360=DIRECTION('',(0.,0.,-1.));
#361=DIRECTION('',(1.,0.,0.));
#362=DIRECTION('',(0.,0.,-1.));
#363=DIRECTION('',(-1.,0.,0.));
#364=DIRECTION('',(0.,0.,1.));
#365=DIRECTION('',(-1.,0.,0.));
#366=DIRECTION('',(0.,0.,1.));
#367=DIRECTION('',(-1.,0.,0.));
#368=DIRECTION('',(0.,0.,1.));
#369=DIRECTION('',(-1.,0.,0.));
#370=DIRECTION('',(0.,0.,1.));
#371=DIRECTION('',(-1.,0.,0.));
#372=DIRECTION('',(0.,0.,1.));
#373=DIRECTION('',(1.,0.,0.));
#374=DIRECTION('',(0.,0.,-1.));
#375=DIRECTION('',(-1.,0.,0.));
#376=DIRECTION('',(0.,0.,1.));
#377=DIRECTION('',(-1.,0.,0.));
#378=DIRECTION('',(0.,0.,1.));
#379=DIRECTION('',(-1.,0.,0.));
#380=DIRECTION('',(0.,0.,1.));
#381=DIRECTION('',(1.,0.,0.));
#382=DIRECTION('',(0.,0.,-1.));
#383=DIRECTION('',(1.,0.,0.));
#384=DIRECTION('',(0.,0.,-1.));
#385=DIRECTION('',(-1.,0.,0.));
#386=DIRECTION('',(0.,0.,1.));
#387=DIRECTION('',(-1.,0.,0.));
#388=DIRECTION('',(0.,0.,1.));
#389=DIRECTION('',(-1.,0.,0.));
#390=DIRECTION('',(0.,0.,1.));
#391=DIRECTION('',(1.,0.,0.));
#392=DIRECTION('',(0.,0.,-1.));
#393=DIRECTION('',(1.,0.,0.));
#394=DIRECTION('',(0.,0.,-1.));
#395=DIRECTION('',(-1.,0.,0.));
#396=DIRECTION('',(0.,0.,1.));
#397=DIRECTION('',(-1.,0.,0.));
#398=DIRECTION('',(0.,0.,1.));
#399=DIRECTION('',(-1.,0.,0.));
#400=DIRECTION('',(0.,0.,1.));
#401=DIRECTION('',(1.,0.,0.));
#402=DIRECTION('',(0.,0.,-1.));
#403=DIRECTION('',(1.,0.,0.));
#404=DIRECTION('',(0.,0.,-1.));
#405=DIRECTION('',(-1.,0.,0.));
#406=DIRECTION('',(0.,0.,1.));
#407=DIRECTION('',(-1.,0.,0.));
#408=DIRECTION('',(0.,0.,1.));
#409=DIRECTION('',(-1.,0.,0.));
#410=DIRECTION('',(0.,0.,1.));
#411=DIRECTION('',(-1.,0.,0.));
#412=DIRECTION('',(0.,0.,1.));
#413=DIRECTION('',(-1.,0.,0.));
#414=DIRECTION('',(0.,0.,1.));
#415=DIRECTION('',(-1.,0.,0.));
#416=DIRECTION('',(0.,0.,1.));
#417=DIRECTION('',(-1.,0.,0.));
#418=DIRECTION('',(0.,0.,1.));
#419=DIRECTION('',(-1.,0.,0.));
#420=DIRECTION('',(0.,0.,1.));
#421=DIRECTION('',(-1.,0.,0.));
#422=DIRECTION('',(0.,0.,1.));
#423=DIRECTION('',(-1.,0.,0.));
#424=DIRECTION('',(0.,0.,1.));
#425=DIRECTION('',(-1.,0.,0.));
#426=DIRECTION('',(0.,0.,1.));
#427=DIRECTION('',(-1.,0.,0.));
#428=DIRECTION('',(0.,0.,1.));
#429=DIRECTION('',(-1.,0.,0.));
#430=DIRECTION('',(0.,0.,1.));
#431=DIRECTION('',(-1.,0.,0.));
#432=DIRECTION('',(0.,0.,1.));
#433=DIRECTION('',(-1.,0.,0.));
#434=DIRECTION('',(0.,0.,1.));
#435=DIRECTION('',(-1.,0.,0.));
#436=DIRECTION('',(0.,0.,1.));
#437=DIRECTION('',(-1.,0.,0.));
#438=DIRECTION('',(0.,0.,1.));
#439=DIRECTION('',(1.,0.,0.));
#440=DIRECTION('',(0.,0.,-1.));
#441=DIRECTION('',(-1.,0.,0.));
#442=DIRECTION('',(0.,0.,1.));
#443=CARTESIAN_POINT('',(0.,0.,0.));
#444=CARTESIAN_POINT('',(0.,0.,0.));
#445=CARTESIAN_POINT('',(0.,0.,0.));
#446=CARTESIAN_POINT('',(0.,0.,7.7));
#447=CARTESIAN_POINT('',(0.,0.,0.));
#448=CARTESIAN_POINT('',(0.,0.,11.25));
#449=CARTESIAN_POINT('',(-30.,0.,0.));
#450=CARTESIAN_POINT('',(31.5,0.,0.));
#451=CARTESIAN_POINT('',(31.5,0.,-11.75));
#452=CARTESIAN_POINT('',(27.3,0.,0.));
#453=CARTESIAN_POINT('',(27.3,0.,11.75));
#454=CARTESIAN_POINT('',(32.,0.,11.75));
#455=CARTESIAN_POINT('',(32.,0.,0.));
#456=CARTESIAN_POINT('',(32.,0.,-11.25));
#457=CARTESIAN_POINT('',(32.,0.,0.));
#458=CARTESIAN_POINT('',(32.,0.,10.493593539449));
#459=CARTESIAN_POINT('',(27.,0.,0.));
#460=CARTESIAN_POINT('',(26.7,0.,0.));
#461=CARTESIAN_POINT('',(26.7,0.,11.75));
#462=CARTESIAN_POINT('',(-30.,0.,0.));
#463=CARTESIAN_POINT('',(0.5,0.,0.));
#464=CARTESIAN_POINT('',(0.5,0.,11.75));
#465=CARTESIAN_POINT('',(24.,0.,0.));
#466=CARTESIAN_POINT('',(24.,0.,0.));
#467=CARTESIAN_POINT('',(24.,0.,8.35));
#468=CARTESIAN_POINT('',(23.6866642891096,0.,0.));
#469=CARTESIAN_POINT('',(23.8082372563464,0.,0.));
#470=CARTESIAN_POINT('',(23.8082372563464,0.,9.1150051406074));
#471=CARTESIAN_POINT('',(18.7,0.,0.));
#472=CARTESIAN_POINT('',(23.201669429717,0.,0.));
#473=CARTESIAN_POINT('',(23.201669429717,0.,-9.47842703276322));
#474=CARTESIAN_POINT('',(18.7,0.,0.));
#475=CARTESIAN_POINT('',(18.7,0.,8.35));
#476=CARTESIAN_POINT('',(18.3866642891096,0.,0.));
#477=CARTESIAN_POINT('',(18.5082372563464,0.,0.));
#478=CARTESIAN_POINT('',(18.5082372563464,0.,9.1150051406074));
#479=CARTESIAN_POINT('',(13.4,0.,0.));
#480=CARTESIAN_POINT('',(17.901669429717,0.,0.));
#481=CARTESIAN_POINT('',(17.901669429717,0.,-9.47842703276322));
#482=CARTESIAN_POINT('',(13.4,0.,0.));
#483=CARTESIAN_POINT('',(13.4,0.,8.35));
#484=CARTESIAN_POINT('',(13.0866642891096,0.,0.));
#485=CARTESIAN_POINT('',(13.2082372563464,0.,0.));
#486=CARTESIAN_POINT('',(13.2082372563464,0.,9.1150051406074));
#487=CARTESIAN_POINT('',(8.1,0.,0.));
#488=CARTESIAN_POINT('',(12.601669429717,0.,0.));
#489=CARTESIAN_POINT('',(12.601669429717,0.,-9.47842703276322));
#490=CARTESIAN_POINT('',(8.1,0.,0.));
#491=CARTESIAN_POINT('',(8.1,0.,8.35));
#492=CARTESIAN_POINT('',(7.8743982881589,0.,0.));
#493=CARTESIAN_POINT('',(7.96925805082371,0.,0.));
#494=CARTESIAN_POINT('',(7.96925805082371,0.,8.87157296723678));
#495=CARTESIAN_POINT('',(-30.,0.,0.));
#496=CARTESIAN_POINT('',(3.5,0.,0.));
#497=CARTESIAN_POINT('',(3.5,0.,9.25));
#498=CARTESIAN_POINT('',(7.48426319143111,0.,0.));
#499=CARTESIAN_POINT('',(7.48426319143111,0.,9.25));
#500=CARTESIAN_POINT('',(3.,8.81716574752112E-16,-7.2));
#501=CARTESIAN_POINT('',(3.,0.,0.));
#502=CARTESIAN_POINT('',(3.,0.,8.75));
#503=CARTESIAN_POINT('',(3.,0.,0.));
#504=CARTESIAN_POINT('',(3.,0.,7.2));
#505=CARTESIAN_POINT('',(-30.,0.,0.));
#506=CARTESIAN_POINT('',(0.5,0.,0.));
#507=CARTESIAN_POINT('',(0.5,0.,7.2));
#508=CARTESIAN_POINT('',(12.7232423969538,0.,0.));
#509=CARTESIAN_POINT('',(23.3232423969538,0.,0.));
#510=CARTESIAN_POINT('',(18.0232423969538,0.,0.));
#511=CARTESIAN_POINT('',(7.48426319143111,0.,0.));
#512=CARTESIAN_POINT('',(3.5,0.,0.));
#513=CARTESIAN_POINT('',(0.5,0.,0.));
#514=CARTESIAN_POINT('',(0.,0.,0.));
#515=CARTESIAN_POINT('',(31.5,0.,0.));
#516=MECHANICAL_DESIGN_GEOMETRIC_PRESENTATION_REPRESENTATION('',(#285),
#517);
#517=(
GEOMETRIC_REPRESENTATION_CONTEXT(3)
GLOBAL_UNCERTAINTY_ASSIGNED_CONTEXT((#518))
GLOBAL_UNIT_ASSIGNED_CONTEXT((#521,#520,#519))
REPRESENTATION_CONTEXT('50000031319_Preßfassung',
'TOP_LEVEL_ASSEMBLY_PART')
);
#518=UNCERTAINTY_MEASURE_WITH_UNIT(LENGTH_MEASURE(0.005),#521,
'DISTANCE_ACCURACY_VALUE','Maximum Tolerance applied to model');
#519=(
NAMED_UNIT(*)
SI_UNIT($,.STERADIAN.)
SOLID_ANGLE_UNIT()
);
#520=(
NAMED_UNIT(*)
PLANE_ANGLE_UNIT()
SI_UNIT($,.RADIAN.)
);
#521=(
LENGTH_UNIT()
NAMED_UNIT(*)
SI_UNIT(.MILLI.,.METRE.)
);
#522=PRODUCT_DEFINITION_SHAPE('','',#523);
#523=PRODUCT_DEFINITION('','',#525,#524);
#524=PRODUCT_DEFINITION_CONTEXT('',#531,'design');
#525=PRODUCT_DEFINITION_FORMATION_WITH_SPECIFIED_SOURCE('','',#527,
 .NOT_KNOWN.);
#526=PRODUCT_RELATED_PRODUCT_CATEGORY('','',(#527));
#527=PRODUCT('50000031319_Preßfassung','50000031319_Preßfassung',
'50000031319_Preßfassung',(#529));
#528=PRODUCT_CATEGORY('','');
#529=PRODUCT_CONTEXT('',#531,'mechanical');
#530=APPLICATION_PROTOCOL_DEFINITION('international standard',
'automotive_design',2010,#531);
#531=APPLICATION_CONTEXT(
'core data for automotive mechanical design processes');
ENDSEC;
END-ISO-10303-21;
