ISO-10303-21;
HEADER;
/* Generated by software containing ST-Developer
 * from STEP Tools, Inc. (www.steptools.com) 
 */
/* OPTION: strings as raw bytes, not using required /X/ escapes */

FILE_DESCRIPTION(
/* description */ ('Unknown'),
/* implementation_level */ '2;1');

FILE_NAME(
/* name */ '30870',
/* time_stamp */ '2018-11-13T08:00:47+01:00',
/* author */ ('Unknown'),
/* organization */ ('Unknown'),
/* preprocessor_version */ 'ST-DEVELOPER v16.7',
/* originating_system */ 'DEX',
/* authorisation */ $);

FILE_SCHEMA (('AUTOMOTIVE_DESIGN {1 0 10303 214 3 1 1}'));
ENDSEC;

DATA;
#10=PROPERTY_DEFINITION_REPRESENTATION(#14,#12);
#11=PROPERTY_DEFINITION_REPRESENTATION(#15,#13);
#12=REPRESENTATION('',(#16),#276);
#13=REPRESENTATION('',(#17),#276);
#14=PROPERTY_DEFINITION('pmi validation property','',#281);
#15=PROPERTY_DEFINITION('pmi validation property','',#281);
#16=VALUE_REPRESENTATION_ITEM('number of annotations',COUNT_MEASURE(0.));
#17=VALUE_REPRESENTATION_ITEM('number of views',COUNT_MEASURE(0.));
#18=SHAPE_REPRESENTATION_RELATIONSHIP('','',#164,#19);
#19=ADVANCED_BREP_SHAPE_REPRESENTATION('',(#162),#276);
#20=LINE('',#268,#23);
#21=LINE('',#270,#24);
#22=LINE('',#272,#25);
#23=VECTOR('',#219,1000.);
#24=VECTOR('',#220,1000.);
#25=VECTOR('',#223,1000.);
#26=PLANE('',#181);
#27=PLANE('',#182);
#28=PLANE('',#183);
#29=B_SPLINE_CURVE_WITH_KNOTS('',3,(#237,#238,#239,#240),.UNSPECIFIED.,
 .F.,.F.,(4,4),(2.58078468986239E-7,0.0023770552412353),.UNSPECIFIED.);
#30=B_SPLINE_CURVE_WITH_KNOTS('',3,(#243,#244,#245,#246),.UNSPECIFIED.,
 .F.,.F.,(4,4),(0.00303803627074797,0.0050304235988472),.UNSPECIFIED.);
#31=B_SPLINE_CURVE_WITH_KNOTS('',3,(#248,#249,#250,#251),.UNSPECIFIED.,
 .F.,.F.,(4,4),(2.49439860294156E-6,0.00237196912432125),.UNSPECIFIED.);
#32=TOROIDAL_SURFACE('',#169,12.35,4.5);
#33=TOROIDAL_SURFACE('',#173,30.4,18.);
#34=TOROIDAL_SURFACE('',#177,10.5,4.5);
#35=ORIENTED_EDGE('',*,*,#63,.T.);
#36=ORIENTED_EDGE('',*,*,#64,.F.);
#37=ORIENTED_EDGE('',*,*,#65,.T.);
#38=ORIENTED_EDGE('',*,*,#63,.F.);
#39=ORIENTED_EDGE('',*,*,#66,.T.);
#40=ORIENTED_EDGE('',*,*,#67,.T.);
#41=ORIENTED_EDGE('',*,*,#68,.T.);
#42=ORIENTED_EDGE('',*,*,#69,.T.);
#43=ORIENTED_EDGE('',*,*,#65,.F.);
#44=ORIENTED_EDGE('',*,*,#70,.T.);
#45=ORIENTED_EDGE('',*,*,#69,.F.);
#46=ORIENTED_EDGE('',*,*,#71,.T.);
#47=ORIENTED_EDGE('',*,*,#70,.F.);
#48=ORIENTED_EDGE('',*,*,#72,.T.);
#49=ORIENTED_EDGE('',*,*,#71,.F.);
#50=ORIENTED_EDGE('',*,*,#73,.F.);
#51=ORIENTED_EDGE('',*,*,#72,.F.);
#52=ORIENTED_EDGE('',*,*,#74,.T.);
#53=ORIENTED_EDGE('',*,*,#75,.F.);
#54=ORIENTED_EDGE('',*,*,#66,.F.);
#55=ORIENTED_EDGE('',*,*,#76,.F.);
#56=ORIENTED_EDGE('',*,*,#74,.F.);
#57=ORIENTED_EDGE('',*,*,#68,.F.);
#58=ORIENTED_EDGE('',*,*,#67,.F.);
#59=ORIENTED_EDGE('',*,*,#75,.T.);
#60=ORIENTED_EDGE('',*,*,#76,.T.);
#61=ORIENTED_EDGE('',*,*,#73,.T.);
#62=ORIENTED_EDGE('',*,*,#64,.T.);
#63=EDGE_CURVE('',#77,#77,#89,.T.);
#64=EDGE_CURVE('',#78,#78,#90,.T.);
#65=EDGE_CURVE('',#79,#79,#91,.T.);
#66=EDGE_CURVE('',#80,#81,#29,.T.);
#67=EDGE_CURVE('',#81,#82,#30,.T.);
#68=EDGE_CURVE('',#82,#80,#31,.T.);
#69=EDGE_CURVE('',#83,#83,#92,.T.);
#70=EDGE_CURVE('',#84,#84,#93,.T.);
#71=EDGE_CURVE('',#85,#85,#94,.T.);
#72=EDGE_CURVE('',#86,#86,#95,.T.);
#73=EDGE_CURVE('',#87,#87,#96,.T.);
#74=EDGE_CURVE('',#80,#88,#20,.T.);
#75=EDGE_CURVE('',#81,#88,#21,.T.);
#76=EDGE_CURVE('',#88,#82,#22,.T.);
#77=VERTEX_POINT('',#231);
#78=VERTEX_POINT('',#233);
#79=VERTEX_POINT('',#236);
#80=VERTEX_POINT('',#241);
#81=VERTEX_POINT('',#242);
#82=VERTEX_POINT('',#247);
#83=VERTEX_POINT('',#254);
#84=VERTEX_POINT('',#257);
#85=VERTEX_POINT('',#260);
#86=VERTEX_POINT('',#263);
#87=VERTEX_POINT('',#266);
#88=VERTEX_POINT('',#269);
#89=CIRCLE('',#167,12.5070477351612);
#90=CIRCLE('',#168,10.25);
#91=CIRCLE('',#170,16.8472587215859);
#92=CIRCLE('',#172,12.4109651136563);
#93=CIRCLE('',#174,13.5759778762017);
#94=CIRCLE('',#176,14.7060055309495);
#95=CIRCLE('',#178,10.6570477351613);
#96=CIRCLE('',#180,9.67519511814325);
#97=EDGE_LOOP('',(#35));
#98=EDGE_LOOP('',(#36));
#99=EDGE_LOOP('',(#37));
#100=EDGE_LOOP('',(#38));
#101=EDGE_LOOP('',(#39,#40,#41));
#102=EDGE_LOOP('',(#42));
#103=EDGE_LOOP('',(#43));
#104=EDGE_LOOP('',(#44));
#105=EDGE_LOOP('',(#45));
#106=EDGE_LOOP('',(#46));
#107=EDGE_LOOP('',(#47));
#108=EDGE_LOOP('',(#48));
#109=EDGE_LOOP('',(#49));
#110=EDGE_LOOP('',(#50));
#111=EDGE_LOOP('',(#51));
#112=EDGE_LOOP('',(#52,#53,#54));
#113=EDGE_LOOP('',(#55,#56,#57));
#114=EDGE_LOOP('',(#58,#59,#60));
#115=EDGE_LOOP('',(#61));
#116=EDGE_LOOP('',(#62));
#117=FACE_BOUND('',#97,.T.);
#118=FACE_BOUND('',#98,.T.);
#119=FACE_BOUND('',#99,.T.);
#120=FACE_BOUND('',#100,.T.);
#121=FACE_BOUND('',#101,.T.);
#122=FACE_BOUND('',#102,.T.);
#123=FACE_BOUND('',#103,.T.);
#124=FACE_BOUND('',#104,.T.);
#125=FACE_BOUND('',#105,.T.);
#126=FACE_BOUND('',#106,.T.);
#127=FACE_BOUND('',#107,.T.);
#128=FACE_BOUND('',#108,.T.);
#129=FACE_BOUND('',#109,.T.);
#130=FACE_BOUND('',#110,.T.);
#131=FACE_BOUND('',#111,.T.);
#132=FACE_BOUND('',#112,.T.);
#133=FACE_BOUND('',#113,.T.);
#134=FACE_BOUND('',#114,.T.);
#135=FACE_BOUND('',#115,.T.);
#136=FACE_BOUND('',#116,.T.);
#137=CONICAL_SURFACE('',#166,8.87499999999999,1.53588974175501);
#138=CONICAL_SURFACE('',#171,16.8472587215859,0.0349065850398865);
#139=CONICAL_SURFACE('',#175,13.5759778762017,0.363472543481265);
#140=CONICAL_SURFACE('',#179,10.6570477351613,1.535889741755);
#141=CONICAL_SURFACE('',#184,10.25,0.00388637644294339);
#142=ADVANCED_FACE('',(#117,#118),#137,.T.);
#143=ADVANCED_FACE('',(#119,#120,#121),#32,.T.);
#144=ADVANCED_FACE('',(#122,#123),#138,.T.);
#145=ADVANCED_FACE('',(#124,#125),#33,.F.);
#146=ADVANCED_FACE('',(#126,#127),#139,.T.);
#147=ADVANCED_FACE('',(#128,#129),#34,.T.);
#148=ADVANCED_FACE('',(#130,#131),#140,.T.);
#149=ADVANCED_FACE('',(#132),#26,.T.);
#150=ADVANCED_FACE('',(#133),#27,.T.);
#151=ADVANCED_FACE('',(#134),#28,.T.);
#152=ADVANCED_FACE('',(#135,#136),#141,.F.);
#153=CLOSED_SHELL('',(#142,#143,#144,#145,#146,#147,#148,#149,#150,#151,
#152));
#154=STYLED_ITEM('',(#155),#162);
#155=PRESENTATION_STYLE_ASSIGNMENT((#156));
#156=SURFACE_STYLE_USAGE(.BOTH.,#157);
#157=SURFACE_SIDE_STYLE('',(#158));
#158=SURFACE_STYLE_FILL_AREA(#159);
#159=FILL_AREA_STYLE('',(#160));
#160=FILL_AREA_STYLE_COLOUR('',#161);
#161=COLOUR_RGB('',0.0901960805058479,0.0901960805058479,0.0901960805058479);
#162=MANIFOLD_SOLID_BREP('',#153);
#163=SHAPE_DEFINITION_REPRESENTATION(#281,#164);
#164=SHAPE_REPRESENTATION('30870',(#165),#276);
#165=AXIS2_PLACEMENT_3D('',#228,#185,#186);
#166=AXIS2_PLACEMENT_3D('',#229,#187,#188);
#167=AXIS2_PLACEMENT_3D('',#230,#189,#190);
#168=AXIS2_PLACEMENT_3D('',#232,#191,#192);
#169=AXIS2_PLACEMENT_3D('',#234,#193,#194);
#170=AXIS2_PLACEMENT_3D('',#235,#195,#196);
#171=AXIS2_PLACEMENT_3D('',#252,#197,#198);
#172=AXIS2_PLACEMENT_3D('',#253,#199,#200);
#173=AXIS2_PLACEMENT_3D('',#255,#201,#202);
#174=AXIS2_PLACEMENT_3D('',#256,#203,#204);
#175=AXIS2_PLACEMENT_3D('',#258,#205,#206);
#176=AXIS2_PLACEMENT_3D('',#259,#207,#208);
#177=AXIS2_PLACEMENT_3D('',#261,#209,#210);
#178=AXIS2_PLACEMENT_3D('',#262,#211,#212);
#179=AXIS2_PLACEMENT_3D('',#264,#213,#214);
#180=AXIS2_PLACEMENT_3D('',#265,#215,#216);
#181=AXIS2_PLACEMENT_3D('',#267,#217,#218);
#182=AXIS2_PLACEMENT_3D('',#271,#221,#222);
#183=AXIS2_PLACEMENT_3D('',#273,#224,#225);
#184=AXIS2_PLACEMENT_3D('',#274,#226,#227);
#185=DIRECTION('',(0.,0.,1.));
#186=DIRECTION('',(1.,0.,0.));
#187=DIRECTION('',(6.12303176911189E-17,1.,6.12303176911189E-17));
#188=DIRECTION('',(0.,-6.12303176911189E-17,1.));
#189=DIRECTION('',(-6.12303176911189E-17,-1.,-6.12303176911189E-17));
#190=DIRECTION('',(0.,6.12303176911189E-17,-1.));
#191=DIRECTION('',(-6.12303176911189E-17,-1.,-6.12303176911189E-17));
#192=DIRECTION('',(0.,6.12303176911189E-17,-1.));
#193=DIRECTION('',(-6.12303176911189E-17,-1.,-6.12303176911189E-17));
#194=DIRECTION('',(0.,6.12303176911189E-17,-1.));
#195=DIRECTION('',(-6.12303176911189E-17,-1.,-6.12303176911189E-17));
#196=DIRECTION('',(0.,6.12303176911189E-17,-1.));
#197=DIRECTION('',(-6.12303176911189E-17,-1.,-6.12303176911189E-17));
#198=DIRECTION('',(0.,6.12303176911189E-17,-1.));
#199=DIRECTION('',(-6.12303176911189E-17,-1.,-6.12303176911189E-17));
#200=DIRECTION('',(0.,6.12303176911189E-17,-1.));
#201=DIRECTION('',(-6.12303176911189E-17,-1.,-6.12303176911189E-17));
#202=DIRECTION('',(0.,6.12303176911189E-17,-1.));
#203=DIRECTION('',(-6.12303176911189E-17,-1.,-6.12303176911189E-17));
#204=DIRECTION('',(0.,6.12303176911189E-17,-1.));
#205=DIRECTION('',(6.12303176911189E-17,1.,6.12303176911189E-17));
#206=DIRECTION('',(0.,-6.12303176911189E-17,1.));
#207=DIRECTION('',(-6.12303176911189E-17,-1.,-6.12303176911189E-17));
#208=DIRECTION('',(0.,6.12303176911189E-17,-1.));
#209=DIRECTION('',(-6.12303176911189E-17,-1.,-6.12303176911189E-17));
#210=DIRECTION('',(0.,6.12303176911189E-17,-1.));
#211=DIRECTION('',(-6.12303176911189E-17,-1.,-6.12303176911189E-17));
#212=DIRECTION('',(0.,6.12303176911189E-17,-1.));
#213=DIRECTION('',(-6.12303176911189E-17,-1.,-6.12303176911189E-17));
#214=DIRECTION('',(0.,6.12303176911189E-17,-1.));
#215=DIRECTION('',(6.12303176911189E-17,1.,6.12303176911189E-17));
#216=DIRECTION('',(0.,-6.12303176911189E-17,1.));
#217=DIRECTION('',(0.996194698091745,0.,0.0871557427476605));
#218=DIRECTION('',(0.0871557427476605,0.,-0.996194698091745));
#219=DIRECTION('',(0.,1.,0.));
#220=DIRECTION('',(0.0871177093050889,-0.0295394515168807,-0.995759973853898));
#221=DIRECTION('',(0.573576436351049,0.,0.81915204428899));
#222=DIRECTION('',(0.81915204428899,0.,-0.573576436351049));
#223=DIRECTION('',(0.818794578776659,0.0295394515168806,-0.573326136304665));
#224=DIRECTION('',(0.0604108783408346,-0.997564050259824,0.0348782368720626));
#225=DIRECTION('',(0.998171368461748,0.0604476565567307,0.));
#226=DIRECTION('',(-6.12303176911189E-17,-1.,-6.12303176911189E-17));
#227=DIRECTION('',(0.,6.12303176911189E-17,-1.));
#228=CARTESIAN_POINT('',(0.,0.,0.));
#229=CARTESIAN_POINT('',(0.,0.,3.67381906146713E-15));
#230=CARTESIAN_POINT('',(7.76608009770278E-18,0.12683390174259,3.68158514156483E-15));
#231=CARTESIAN_POINT('',(7.76608009770278E-18,0.126833901742591,-12.5070477351612));
#232=CARTESIAN_POINT('',(2.94003848874767E-18,0.0480160580511521,3.67675909995588E-15));
#233=CARTESIAN_POINT('',(2.94003848874767E-18,0.0480160580511527,-10.25));
#234=CARTESIAN_POINT('',(2.83134660359564E-16,4.62409262332852,3.46944695195361E-15));
#235=CARTESIAN_POINT('',(2.92750743076159E-16,4.78114035848977,3.96656980454329E-15));
#236=CARTESIAN_POINT('',(2.92750743076159E-16,4.78114035848977,-16.8472587215859));
#237=CARTESIAN_POINT('',(14.1629730249646,2.57030503851961,8.17699628848994));
#238=CARTESIAN_POINT('',(14.1092589432595,3.07808802551575,8.790951051774));
#239=CARTESIAN_POINT('',(14.0676854075192,3.79480130880523,9.26613873969563));
#240=CARTESIAN_POINT('',(14.0668215193275,4.59766773225825,9.27601302691042));
#241=CARTESIAN_POINT('',(14.1629730249647,2.57030503852071,8.17699628848877));
#242=CARTESIAN_POINT('',(14.0668215193275,4.59766773225825,9.27601302691042));
#243=CARTESIAN_POINT('',(14.0668215193275,4.59766773225825,9.27601302691042));
#244=CARTESIAN_POINT('',(14.4331173622457,4.60042965905913,8.7205648031844));
#245=CARTESIAN_POINT('',(14.768789336029,4.60042965905913,8.13916388991484));
#246=CARTESIAN_POINT('',(15.0666736868036,4.59766773225825,7.54421827278406));
#247=CARTESIAN_POINT('',(15.0666736868036,4.59766773225825,7.54421827278406));
#248=CARTESIAN_POINT('',(15.0666736868036,4.59766773225825,7.54421827278406));
#249=CARTESIAN_POINT('',(15.0585657698041,3.79594067438821,7.54989549738625));
#250=CARTESIAN_POINT('',(14.6677634225417,3.0780347336539,7.82353824688942));
#251=CARTESIAN_POINT('',(14.1629730249657,2.5703050385195,8.17699628848805));
#252=CARTESIAN_POINT('',(2.92750743076159E-16,4.78114035848977,3.96656980454329E-15));
#253=CARTESIAN_POINT('',(8.07137850352124E-15,131.819967752543,1.17451975649884E-14));
#254=CARTESIAN_POINT('',(8.07137850352124E-15,131.819967752543,-12.4109651136562));
#255=CARTESIAN_POINT('',(8.10984283438762E-15,132.448158693188,1.04083408558608E-14));
#256=CARTESIAN_POINT('',(8.50167993431603E-15,138.84755550679,1.21754989957832E-14));
#257=CARTESIAN_POINT('',(8.50167993431603E-15,138.84755550679,-13.5759778762017));
#258=CARTESIAN_POINT('',(8.50167993431603E-15,138.84755550679,1.21754989957832E-14));
#259=CARTESIAN_POINT('',(8.68358566233854E-15,141.81839960628,1.23574047238057E-14));
#260=CARTESIAN_POINT('',(8.68358566233854E-15,141.81839960628,-14.7060055309495));
#261=CARTESIAN_POINT('',(8.78154493732065E-15,143.41824880968,1.21430643318376E-14));
#262=CARTESIAN_POINT('',(9.05691351758251E-15,147.915507531266,1.27307325790496E-14));
#263=CARTESIAN_POINT('',(9.05691351758251E-15,147.915507531266,-10.6570477351612));
#264=CARTESIAN_POINT('',(9.05691351758251E-15,147.915507531266,1.27307325790496E-14));
#265=CARTESIAN_POINT('',(9.05901292448019E-15,147.94979458018,1.27328319859473E-14));
#266=CARTESIAN_POINT('',(9.05901292448019E-15,147.94979458018,9.67519511814326));
#267=CARTESIAN_POINT('',(14.1629730249647,-150.884340047479,8.17699628848877));
#268=CARTESIAN_POINT('',(14.1629730249647,-150.884340047479,8.17699628848877));
#269=CARTESIAN_POINT('',(14.1629730249647,4.56506514477403,8.17699628848877));
#270=CARTESIAN_POINT('',(14.5630079777818,4.42942322778542,3.60457585485665));
#271=CARTESIAN_POINT('',(14.1629730249647,-150.884340047479,8.17699628848877));
#272=CARTESIAN_POINT('',(10.4031582490648,4.42942322778542,10.8096469368462));
#273=CARTESIAN_POINT('',(14.5956321332856,4.59999999999999,8.4267921411452));
#274=CARTESIAN_POINT('',(2.94003848874767E-18,0.0480160580511521,3.67675909995588E-15));
#275=MECHANICAL_DESIGN_GEOMETRIC_PRESENTATION_REPRESENTATION('',(#154),
#276);
#276=(
GEOMETRIC_REPRESENTATION_CONTEXT(3)
GLOBAL_UNCERTAINTY_ASSIGNED_CONTEXT((#277))
GLOBAL_UNIT_ASSIGNED_CONTEXT((#280,#279,#278))
REPRESENTATION_CONTEXT('30870','TOP_LEVEL_ASSEMBLY_PART')
);
#277=UNCERTAINTY_MEASURE_WITH_UNIT(LENGTH_MEASURE(0.005),#280,
'DISTANCE_ACCURACY_VALUE','Maximum Tolerance applied to model');
#278=(
NAMED_UNIT(*)
SI_UNIT($,.STERADIAN.)
SOLID_ANGLE_UNIT()
);
#279=(
NAMED_UNIT(*)
PLANE_ANGLE_UNIT()
SI_UNIT($,.RADIAN.)
);
#280=(
LENGTH_UNIT()
NAMED_UNIT(*)
SI_UNIT(.MILLI.,.METRE.)
);
#281=PRODUCT_DEFINITION_SHAPE('','',#282);
#282=PRODUCT_DEFINITION('','',#284,#283);
#283=PRODUCT_DEFINITION_CONTEXT('',#290,'design');
#284=PRODUCT_DEFINITION_FORMATION_WITH_SPECIFIED_SOURCE('','',#286,
 .NOT_KNOWN.);
#285=PRODUCT_RELATED_PRODUCT_CATEGORY('','',(#286));
#286=PRODUCT('30870','30870','30870',(#288));
#287=PRODUCT_CATEGORY('','');
#288=PRODUCT_CONTEXT('',#290,'mechanical');
#289=APPLICATION_PROTOCOL_DEFINITION('international standard',
'automotive_design',2010,#290);
#290=APPLICATION_CONTEXT(
'core data for automotive mechanical design processes');
ENDSEC;
END-ISO-10303-21;
