ISO-10303-21;
HEADER;
/* Generated by software containing ST-Developer
 * from STEP Tools, Inc. (www.steptools.com) 
 */
/* OPTION: strings as raw bytes, not using required /X/ escapes */

FILE_DESCRIPTION(
/* description */ ('Unknown'),
/* implementation_level */ '2;1');

FILE_NAME(
/* name */ '308605_Knickschutz_NW8_schwarz_17_08_2023',
/* time_stamp */ '2023-08-17T13:41:00+02:00',
/* author */ ('Unknown'),
/* organization */ ('Unknown'),
/* preprocessor_version */ 'ST-DEVELOPER v18.104',
/* originating_system */ 'Solid Edge',
/* authorisation */ 'Unknown');

FILE_SCHEMA (('AUTOMOTIVE_DESIGN {1 0 10303 214 3 1 1}'));
ENDSEC;

DATA;
#10=PROPERTY_DEFINITION_REPRESENTATION(#14,#12);
#11=PROPERTY_DEFINITION_REPRESENTATION(#15,#13);
#12=REPRESENTATION('',(#16),#683);
#13=REPRESENTATION('',(#17),#683);
#14=PROPERTY_DEFINITION('pmi validation property','',#688);
#15=PROPERTY_DEFINITION('pmi validation property','',#688);
#16=VALUE_REPRESENTATION_ITEM('number of annotations',COUNT_MEASURE(0.));
#17=VALUE_REPRESENTATION_ITEM('number of views',COUNT_MEASURE(0.));
#18=SHAPE_REPRESENTATION_RELATIONSHIP('','',#385,#19);
#19=ADVANCED_BREP_SHAPE_REPRESENTATION('',(#383),#683);
#20=TOROIDAL_SURFACE('',#395,32.9356712719676,20.);
#21=TOROIDAL_SURFACE('',#401,33.4536861564604,20.);
#22=TOROIDAL_SURFACE('',#407,33.9665519020669,20.);
#23=TOROIDAL_SURFACE('',#413,34.474268508787,20.);
#24=TOROIDAL_SURFACE('',#419,34.9922833932799,20.);
#25=TOROIDAL_SURFACE('',#425,35.5,20.);
#26=TOROIDAL_SURFACE('',#434,14.681148105414,3.);
#27=TOROIDAL_SURFACE('',#435,13.,3.);
#28=TOROIDAL_SURFACE('',#436,13.,3.);
#29=TOROIDAL_SURFACE('',#437,12.0160321244143,3.);
#30=TOROIDAL_SURFACE('',#438,12.1170967073302,3.);
#31=TOROIDAL_SURFACE('',#439,12.5286285605786,3.);
#32=TOROIDAL_SURFACE('',#440,12.6299624529367,3.);
#33=TOROIDAL_SURFACE('',#441,13.0414943061851,3.);
#34=TOROIDAL_SURFACE('',#442,13.1425535884219,3.);
#35=TOROIDAL_SURFACE('',#443,13.5546293612337,3.);
#36=TOROIDAL_SURFACE('',#444,13.6556939441497,3.);
#37=TOROIDAL_SURFACE('',#445,14.067225797398,3.);
#38=TOROIDAL_SURFACE('',#446,14.1682850796348,3.);
#39=TOROIDAL_SURFACE('',#447,14.5803608524467,3.);
#40=CYLINDRICAL_SURFACE('',#392,16.);
#41=CYLINDRICAL_SURFACE('',#448,7.3);
#42=PLANE('',#390);
#43=PLANE('',#431);
#44=PLANE('',#450);
#45=PLANE('',#451);
#46=ORIENTED_EDGE('',*,*,#110,.F.);
#47=ORIENTED_EDGE('',*,*,#111,.F.);
#48=ORIENTED_EDGE('',*,*,#110,.T.);
#49=ORIENTED_EDGE('',*,*,#112,.T.);
#50=ORIENTED_EDGE('',*,*,#113,.T.);
#51=ORIENTED_EDGE('',*,*,#114,.T.);
#52=ORIENTED_EDGE('',*,*,#115,.T.);
#53=ORIENTED_EDGE('',*,*,#116,.T.);
#54=ORIENTED_EDGE('',*,*,#117,.T.);
#55=ORIENTED_EDGE('',*,*,#118,.T.);
#56=ORIENTED_EDGE('',*,*,#119,.T.);
#57=ORIENTED_EDGE('',*,*,#120,.T.);
#58=ORIENTED_EDGE('',*,*,#121,.T.);
#59=ORIENTED_EDGE('',*,*,#122,.T.);
#60=ORIENTED_EDGE('',*,*,#123,.T.);
#61=ORIENTED_EDGE('',*,*,#124,.T.);
#62=ORIENTED_EDGE('',*,*,#125,.T.);
#63=ORIENTED_EDGE('',*,*,#126,.T.);
#64=ORIENTED_EDGE('',*,*,#127,.T.);
#65=ORIENTED_EDGE('',*,*,#128,.T.);
#66=ORIENTED_EDGE('',*,*,#129,.T.);
#67=ORIENTED_EDGE('',*,*,#130,.T.);
#68=ORIENTED_EDGE('',*,*,#131,.T.);
#69=ORIENTED_EDGE('',*,*,#132,.T.);
#70=ORIENTED_EDGE('',*,*,#133,.T.);
#71=ORIENTED_EDGE('',*,*,#134,.T.);
#72=ORIENTED_EDGE('',*,*,#135,.T.);
#73=ORIENTED_EDGE('',*,*,#136,.T.);
#74=ORIENTED_EDGE('',*,*,#137,.T.);
#75=ORIENTED_EDGE('',*,*,#138,.T.);
#76=ORIENTED_EDGE('',*,*,#139,.T.);
#77=ORIENTED_EDGE('',*,*,#140,.T.);
#78=ORIENTED_EDGE('',*,*,#138,.F.);
#79=ORIENTED_EDGE('',*,*,#140,.F.);
#80=ORIENTED_EDGE('',*,*,#112,.F.);
#81=ORIENTED_EDGE('',*,*,#114,.F.);
#82=ORIENTED_EDGE('',*,*,#113,.F.);
#83=ORIENTED_EDGE('',*,*,#116,.F.);
#84=ORIENTED_EDGE('',*,*,#115,.F.);
#85=ORIENTED_EDGE('',*,*,#118,.F.);
#86=ORIENTED_EDGE('',*,*,#117,.F.);
#87=ORIENTED_EDGE('',*,*,#120,.F.);
#88=ORIENTED_EDGE('',*,*,#119,.F.);
#89=ORIENTED_EDGE('',*,*,#122,.F.);
#90=ORIENTED_EDGE('',*,*,#121,.F.);
#91=ORIENTED_EDGE('',*,*,#124,.F.);
#92=ORIENTED_EDGE('',*,*,#123,.F.);
#93=ORIENTED_EDGE('',*,*,#126,.F.);
#94=ORIENTED_EDGE('',*,*,#125,.F.);
#95=ORIENTED_EDGE('',*,*,#128,.F.);
#96=ORIENTED_EDGE('',*,*,#127,.F.);
#97=ORIENTED_EDGE('',*,*,#130,.F.);
#98=ORIENTED_EDGE('',*,*,#129,.F.);
#99=ORIENTED_EDGE('',*,*,#132,.F.);
#100=ORIENTED_EDGE('',*,*,#131,.F.);
#101=ORIENTED_EDGE('',*,*,#134,.F.);
#102=ORIENTED_EDGE('',*,*,#133,.F.);
#103=ORIENTED_EDGE('',*,*,#136,.F.);
#104=ORIENTED_EDGE('',*,*,#135,.F.);
#105=ORIENTED_EDGE('',*,*,#137,.F.);
#106=ORIENTED_EDGE('',*,*,#141,.F.);
#107=ORIENTED_EDGE('',*,*,#139,.F.);
#108=ORIENTED_EDGE('',*,*,#141,.T.);
#109=ORIENTED_EDGE('',*,*,#111,.T.);
#110=EDGE_CURVE('',#142,#142,#174,.T.);
#111=EDGE_CURVE('',#143,#143,#175,.F.);
#112=EDGE_CURVE('',#144,#144,#176,.F.);
#113=EDGE_CURVE('',#145,#145,#177,.T.);
#114=EDGE_CURVE('',#146,#146,#178,.T.);
#115=EDGE_CURVE('',#147,#147,#179,.T.);
#116=EDGE_CURVE('',#148,#148,#180,.T.);
#117=EDGE_CURVE('',#149,#149,#181,.T.);
#118=EDGE_CURVE('',#150,#150,#182,.F.);
#119=EDGE_CURVE('',#151,#151,#183,.T.);
#120=EDGE_CURVE('',#152,#152,#184,.T.);
#121=EDGE_CURVE('',#153,#153,#185,.T.);
#122=EDGE_CURVE('',#154,#154,#186,.F.);
#123=EDGE_CURVE('',#155,#155,#187,.T.);
#124=EDGE_CURVE('',#156,#156,#188,.T.);
#125=EDGE_CURVE('',#157,#157,#189,.T.);
#126=EDGE_CURVE('',#158,#158,#190,.F.);
#127=EDGE_CURVE('',#159,#159,#191,.T.);
#128=EDGE_CURVE('',#160,#160,#192,.T.);
#129=EDGE_CURVE('',#161,#161,#193,.T.);
#130=EDGE_CURVE('',#162,#162,#194,.F.);
#131=EDGE_CURVE('',#163,#163,#195,.T.);
#132=EDGE_CURVE('',#164,#164,#196,.T.);
#133=EDGE_CURVE('',#165,#165,#197,.T.);
#134=EDGE_CURVE('',#166,#166,#198,.F.);
#135=EDGE_CURVE('',#167,#167,#199,.T.);
#136=EDGE_CURVE('',#168,#168,#200,.T.);
#137=EDGE_CURVE('',#169,#169,#201,.F.);
#138=EDGE_CURVE('',#170,#170,#202,.T.);
#139=EDGE_CURVE('',#171,#171,#203,.T.);
#140=EDGE_CURVE('',#172,#172,#204,.F.);
#141=EDGE_CURVE('',#173,#173,#205,.T.);
#142=VERTEX_POINT('',#587);
#143=VERTEX_POINT('',#589);
#144=VERTEX_POINT('',#592);
#145=VERTEX_POINT('',#595);
#146=VERTEX_POINT('',#597);
#147=VERTEX_POINT('',#600);
#148=VERTEX_POINT('',#602);
#149=VERTEX_POINT('',#605);
#150=VERTEX_POINT('',#607);
#151=VERTEX_POINT('',#610);
#152=VERTEX_POINT('',#612);
#153=VERTEX_POINT('',#615);
#154=VERTEX_POINT('',#617);
#155=VERTEX_POINT('',#620);
#156=VERTEX_POINT('',#622);
#157=VERTEX_POINT('',#625);
#158=VERTEX_POINT('',#627);
#159=VERTEX_POINT('',#630);
#160=VERTEX_POINT('',#632);
#161=VERTEX_POINT('',#635);
#162=VERTEX_POINT('',#637);
#163=VERTEX_POINT('',#640);
#164=VERTEX_POINT('',#642);
#165=VERTEX_POINT('',#645);
#166=VERTEX_POINT('',#647);
#167=VERTEX_POINT('',#650);
#168=VERTEX_POINT('',#652);
#169=VERTEX_POINT('',#655);
#170=VERTEX_POINT('',#657);
#171=VERTEX_POINT('',#660);
#172=VERTEX_POINT('',#662);
#173=VERTEX_POINT('',#679);
#174=CIRCLE('',#388,10.8719725431314);
#175=CIRCLE('',#389,10.8065189577073);
#176=CIRCLE('',#391,13.);
#177=CIRCLE('',#393,16.);
#178=CIRCLE('',#394,16.);
#179=CIRCLE('',#396,14.7446807088779);
#180=CIRCLE('',#397,15.6003049485176);
#181=CIRCLE('',#399,15.1163245352982);
#182=CIRCLE('',#400,15.0152599523823);
#183=CIRCLE('',#402,15.257983899172);
#184=CIRCLE('',#403,14.9001301137386);
#185=CIRCLE('',#405,15.6291902809047);
#186=CIRCLE('',#406,15.5278563885465);
#187=CIRCLE('',#408,15.7708496447784);
#188=CIRCLE('',#409,15.4129958593451);
#189=CIRCLE('',#411,16.1417814163898);
#190=CIRCLE('',#412,16.040722134153);
#191=CIRCLE('',#414,16.2832779456973);
#192=CIRCLE('',#415,15.9249511867305);
#193=CIRCLE('',#417,16.6549217721176);
#194=CIRCLE('',#418,16.5538571892017);
#195=CIRCLE('',#420,16.7965811359914);
#196=CIRCLE('',#421,16.4387273505581);
#197=CIRCLE('',#423,17.1675129076028);
#198=CIRCLE('',#424,17.066453625366);
#199=CIRCLE('',#426,17.3090094369103);
#200=CIRCLE('',#427,16.9506826779434);
#201=CIRCLE('',#429,17.5795886804147);
#202=CIRCLE('',#430,17.6803759333821);
#203=CIRCLE('',#432,7.3);
#204=CIRCLE('',#433,14.681148105414);
#205=CIRCLE('',#449,7.3);
#206=EDGE_LOOP('',(#46));
#207=EDGE_LOOP('',(#47));
#208=EDGE_LOOP('',(#48));
#209=EDGE_LOOP('',(#49));
#210=EDGE_LOOP('',(#50));
#211=EDGE_LOOP('',(#51));
#212=EDGE_LOOP('',(#52));
#213=EDGE_LOOP('',(#53));
#214=EDGE_LOOP('',(#54));
#215=EDGE_LOOP('',(#55));
#216=EDGE_LOOP('',(#56));
#217=EDGE_LOOP('',(#57));
#218=EDGE_LOOP('',(#58));
#219=EDGE_LOOP('',(#59));
#220=EDGE_LOOP('',(#60));
#221=EDGE_LOOP('',(#61));
#222=EDGE_LOOP('',(#62));
#223=EDGE_LOOP('',(#63));
#224=EDGE_LOOP('',(#64));
#225=EDGE_LOOP('',(#65));
#226=EDGE_LOOP('',(#66));
#227=EDGE_LOOP('',(#67));
#228=EDGE_LOOP('',(#68));
#229=EDGE_LOOP('',(#69));
#230=EDGE_LOOP('',(#70));
#231=EDGE_LOOP('',(#71));
#232=EDGE_LOOP('',(#72));
#233=EDGE_LOOP('',(#73));
#234=EDGE_LOOP('',(#74));
#235=EDGE_LOOP('',(#75));
#236=EDGE_LOOP('',(#76));
#237=EDGE_LOOP('',(#77));
#238=EDGE_LOOP('',(#78));
#239=EDGE_LOOP('',(#79));
#240=EDGE_LOOP('',(#80));
#241=EDGE_LOOP('',(#81));
#242=EDGE_LOOP('',(#82));
#243=EDGE_LOOP('',(#83));
#244=EDGE_LOOP('',(#84));
#245=EDGE_LOOP('',(#85));
#246=EDGE_LOOP('',(#86));
#247=EDGE_LOOP('',(#87));
#248=EDGE_LOOP('',(#88));
#249=EDGE_LOOP('',(#89));
#250=EDGE_LOOP('',(#90));
#251=EDGE_LOOP('',(#91));
#252=EDGE_LOOP('',(#92));
#253=EDGE_LOOP('',(#93));
#254=EDGE_LOOP('',(#94));
#255=EDGE_LOOP('',(#95));
#256=EDGE_LOOP('',(#96));
#257=EDGE_LOOP('',(#97));
#258=EDGE_LOOP('',(#98));
#259=EDGE_LOOP('',(#99));
#260=EDGE_LOOP('',(#100));
#261=EDGE_LOOP('',(#101));
#262=EDGE_LOOP('',(#102));
#263=EDGE_LOOP('',(#103));
#264=EDGE_LOOP('',(#104));
#265=EDGE_LOOP('',(#105));
#266=EDGE_LOOP('',(#106));
#267=EDGE_LOOP('',(#107));
#268=EDGE_LOOP('',(#108));
#269=EDGE_LOOP('',(#109));
#270=FACE_BOUND('',#206,.T.);
#271=FACE_BOUND('',#207,.T.);
#272=FACE_BOUND('',#208,.T.);
#273=FACE_BOUND('',#209,.T.);
#274=FACE_BOUND('',#210,.T.);
#275=FACE_BOUND('',#211,.T.);
#276=FACE_BOUND('',#212,.T.);
#277=FACE_BOUND('',#213,.T.);
#278=FACE_BOUND('',#214,.T.);
#279=FACE_BOUND('',#215,.T.);
#280=FACE_BOUND('',#216,.T.);
#281=FACE_BOUND('',#217,.T.);
#282=FACE_BOUND('',#218,.T.);
#283=FACE_BOUND('',#219,.T.);
#284=FACE_BOUND('',#220,.T.);
#285=FACE_BOUND('',#221,.T.);
#286=FACE_BOUND('',#222,.T.);
#287=FACE_BOUND('',#223,.T.);
#288=FACE_BOUND('',#224,.T.);
#289=FACE_BOUND('',#225,.T.);
#290=FACE_BOUND('',#226,.T.);
#291=FACE_BOUND('',#227,.T.);
#292=FACE_BOUND('',#228,.T.);
#293=FACE_BOUND('',#229,.T.);
#294=FACE_BOUND('',#230,.T.);
#295=FACE_BOUND('',#231,.T.);
#296=FACE_BOUND('',#232,.T.);
#297=FACE_BOUND('',#233,.T.);
#298=FACE_BOUND('',#234,.T.);
#299=FACE_BOUND('',#235,.T.);
#300=FACE_BOUND('',#236,.T.);
#301=FACE_BOUND('',#237,.T.);
#302=FACE_BOUND('',#238,.T.);
#303=FACE_BOUND('',#239,.T.);
#304=FACE_BOUND('',#240,.T.);
#305=FACE_BOUND('',#241,.T.);
#306=FACE_BOUND('',#242,.T.);
#307=FACE_BOUND('',#243,.T.);
#308=FACE_BOUND('',#244,.T.);
#309=FACE_BOUND('',#245,.T.);
#310=FACE_BOUND('',#246,.T.);
#311=FACE_BOUND('',#247,.T.);
#312=FACE_BOUND('',#248,.T.);
#313=FACE_BOUND('',#249,.T.);
#314=FACE_BOUND('',#250,.T.);
#315=FACE_BOUND('',#251,.T.);
#316=FACE_BOUND('',#252,.T.);
#317=FACE_BOUND('',#253,.T.);
#318=FACE_BOUND('',#254,.T.);
#319=FACE_BOUND('',#255,.T.);
#320=FACE_BOUND('',#256,.T.);
#321=FACE_BOUND('',#257,.T.);
#322=FACE_BOUND('',#258,.T.);
#323=FACE_BOUND('',#259,.T.);
#324=FACE_BOUND('',#260,.T.);
#325=FACE_BOUND('',#261,.T.);
#326=FACE_BOUND('',#262,.T.);
#327=FACE_BOUND('',#263,.T.);
#328=FACE_BOUND('',#264,.T.);
#329=FACE_BOUND('',#265,.T.);
#330=FACE_BOUND('',#266,.T.);
#331=FACE_BOUND('',#267,.T.);
#332=FACE_BOUND('',#268,.T.);
#333=FACE_BOUND('',#269,.T.);
#334=CONICAL_SURFACE('',#387,9.00000000000001,0.0130899693899577);
#335=CONICAL_SURFACE('',#398,15.0007421788896,0.022689280275925);
#336=CONICAL_SURFACE('',#404,15.5133595329179,0.0226892802759257);
#337=CONICAL_SURFACE('',#410,16.0262252785244,0.0226892802759252);
#338=CONICAL_SURFACE('',#416,16.539339415709,0.0226892802759253);
#339=CONICAL_SURFACE('',#422,17.0519567697374,0.0226892802759263);
#340=CONICAL_SURFACE('',#428,17.565070906922,0.0226892802759267);
#341=ADVANCED_FACE('',(#270,#271),#334,.F.);
#342=ADVANCED_FACE('',(#272,#273),#42,.F.);
#343=ADVANCED_FACE('',(#274,#275),#40,.T.);
#344=ADVANCED_FACE('',(#276,#277),#20,.F.);
#345=ADVANCED_FACE('',(#278,#279),#335,.T.);
#346=ADVANCED_FACE('',(#280,#281),#21,.F.);
#347=ADVANCED_FACE('',(#282,#283),#336,.T.);
#348=ADVANCED_FACE('',(#284,#285),#22,.F.);
#349=ADVANCED_FACE('',(#286,#287),#337,.T.);
#350=ADVANCED_FACE('',(#288,#289),#23,.F.);
#351=ADVANCED_FACE('',(#290,#291),#338,.T.);
#352=ADVANCED_FACE('',(#292,#293),#24,.F.);
#353=ADVANCED_FACE('',(#294,#295),#339,.T.);
#354=ADVANCED_FACE('',(#296,#297),#25,.F.);
#355=ADVANCED_FACE('',(#298,#299),#340,.T.);
#356=ADVANCED_FACE('',(#300,#301),#43,.F.);
#357=ADVANCED_FACE('',(#302,#303),#26,.T.);
#358=ADVANCED_FACE('',(#304,#305),#27,.T.);
#359=ADVANCED_FACE('',(#306,#307),#28,.T.);
#360=ADVANCED_FACE('',(#308,#309),#29,.T.);
#361=ADVANCED_FACE('',(#310,#311),#30,.T.);
#362=ADVANCED_FACE('',(#312,#313),#31,.T.);
#363=ADVANCED_FACE('',(#314,#315),#32,.T.);
#364=ADVANCED_FACE('',(#316,#317),#33,.T.);
#365=ADVANCED_FACE('',(#318,#319),#34,.T.);
#366=ADVANCED_FACE('',(#320,#321),#35,.T.);
#367=ADVANCED_FACE('',(#322,#323),#36,.T.);
#368=ADVANCED_FACE('',(#324,#325),#37,.T.);
#369=ADVANCED_FACE('',(#326,#327),#38,.T.);
#370=ADVANCED_FACE('',(#328,#329),#39,.T.);
#371=ADVANCED_FACE('',(#330,#331),#41,.F.);
#372=ADVANCED_FACE('',(#332),#44,.F.);
#373=ADVANCED_FACE('',(#333),#45,.F.);
#374=CLOSED_SHELL('',(#341,#342,#343,#344,#345,#346,#347,#348,#349,#350,
#351,#352,#353,#354,#355,#356,#357,#358,#359,#360,#361,#362,#363,#364,#365,
#366,#367,#368,#369,#370,#371,#372,#373));
#375=STYLED_ITEM('',(#376),#383);
#376=PRESENTATION_STYLE_ASSIGNMENT((#377));
#377=SURFACE_STYLE_USAGE(.BOTH.,#378);
#378=SURFACE_SIDE_STYLE('',(#379));
#379=SURFACE_STYLE_FILL_AREA(#380);
#380=FILL_AREA_STYLE('',(#381));
#381=FILL_AREA_STYLE_COLOUR('',#382);
#382=COLOUR_RGB('',0.0901960805058479,0.0901960805058479,0.0901960805058479);
#383=MANIFOLD_SOLID_BREP('',#374);
#384=SHAPE_DEFINITION_REPRESENTATION(#688,#385);
#385=SHAPE_REPRESENTATION(
'10523_308605_Knickschutz_NW8_schwarz_00152302',(#386),#683);
#386=AXIS2_PLACEMENT_3D('',#584,#452,#453);
#387=AXIS2_PLACEMENT_3D('',#585,#454,#455);
#388=AXIS2_PLACEMENT_3D('',#586,#456,#457);
#389=AXIS2_PLACEMENT_3D('',#588,#458,#459);
#390=AXIS2_PLACEMENT_3D('',#590,#460,#461);
#391=AXIS2_PLACEMENT_3D('',#591,#462,#463);
#392=AXIS2_PLACEMENT_3D('',#593,#464,#465);
#393=AXIS2_PLACEMENT_3D('',#594,#466,#467);
#394=AXIS2_PLACEMENT_3D('',#596,#468,#469);
#395=AXIS2_PLACEMENT_3D('',#598,#470,#471);
#396=AXIS2_PLACEMENT_3D('',#599,#472,#473);
#397=AXIS2_PLACEMENT_3D('',#601,#474,#475);
#398=AXIS2_PLACEMENT_3D('',#603,#476,#477);
#399=AXIS2_PLACEMENT_3D('',#604,#478,#479);
#400=AXIS2_PLACEMENT_3D('',#606,#480,#481);
#401=AXIS2_PLACEMENT_3D('',#608,#482,#483);
#402=AXIS2_PLACEMENT_3D('',#609,#484,#485);
#403=AXIS2_PLACEMENT_3D('',#611,#486,#487);
#404=AXIS2_PLACEMENT_3D('',#613,#488,#489);
#405=AXIS2_PLACEMENT_3D('',#614,#490,#491);
#406=AXIS2_PLACEMENT_3D('',#616,#492,#493);
#407=AXIS2_PLACEMENT_3D('',#618,#494,#495);
#408=AXIS2_PLACEMENT_3D('',#619,#496,#497);
#409=AXIS2_PLACEMENT_3D('',#621,#498,#499);
#410=AXIS2_PLACEMENT_3D('',#623,#500,#501);
#411=AXIS2_PLACEMENT_3D('',#624,#502,#503);
#412=AXIS2_PLACEMENT_3D('',#626,#504,#505);
#413=AXIS2_PLACEMENT_3D('',#628,#506,#507);
#414=AXIS2_PLACEMENT_3D('',#629,#508,#509);
#415=AXIS2_PLACEMENT_3D('',#631,#510,#511);
#416=AXIS2_PLACEMENT_3D('',#633,#512,#513);
#417=AXIS2_PLACEMENT_3D('',#634,#514,#515);
#418=AXIS2_PLACEMENT_3D('',#636,#516,#517);
#419=AXIS2_PLACEMENT_3D('',#638,#518,#519);
#420=AXIS2_PLACEMENT_3D('',#639,#520,#521);
#421=AXIS2_PLACEMENT_3D('',#641,#522,#523);
#422=AXIS2_PLACEMENT_3D('',#643,#524,#525);
#423=AXIS2_PLACEMENT_3D('',#644,#526,#527);
#424=AXIS2_PLACEMENT_3D('',#646,#528,#529);
#425=AXIS2_PLACEMENT_3D('',#648,#530,#531);
#426=AXIS2_PLACEMENT_3D('',#649,#532,#533);
#427=AXIS2_PLACEMENT_3D('',#651,#534,#535);
#428=AXIS2_PLACEMENT_3D('',#653,#536,#537);
#429=AXIS2_PLACEMENT_3D('',#654,#538,#539);
#430=AXIS2_PLACEMENT_3D('',#656,#540,#541);
#431=AXIS2_PLACEMENT_3D('',#658,#542,#543);
#432=AXIS2_PLACEMENT_3D('',#659,#544,#545);
#433=AXIS2_PLACEMENT_3D('',#661,#546,#547);
#434=AXIS2_PLACEMENT_3D('',#663,#548,#549);
#435=AXIS2_PLACEMENT_3D('',#664,#550,#551);
#436=AXIS2_PLACEMENT_3D('',#665,#552,#553);
#437=AXIS2_PLACEMENT_3D('',#666,#554,#555);
#438=AXIS2_PLACEMENT_3D('',#667,#556,#557);
#439=AXIS2_PLACEMENT_3D('',#668,#558,#559);
#440=AXIS2_PLACEMENT_3D('',#669,#560,#561);
#441=AXIS2_PLACEMENT_3D('',#670,#562,#563);
#442=AXIS2_PLACEMENT_3D('',#671,#564,#565);
#443=AXIS2_PLACEMENT_3D('',#672,#566,#567);
#444=AXIS2_PLACEMENT_3D('',#673,#568,#569);
#445=AXIS2_PLACEMENT_3D('',#674,#570,#571);
#446=AXIS2_PLACEMENT_3D('',#675,#572,#573);
#447=AXIS2_PLACEMENT_3D('',#676,#574,#575);
#448=AXIS2_PLACEMENT_3D('',#677,#576,#577);
#449=AXIS2_PLACEMENT_3D('',#678,#578,#579);
#450=AXIS2_PLACEMENT_3D('',#680,#580,#581);
#451=AXIS2_PLACEMENT_3D('',#681,#582,#583);
#452=DIRECTION('',(0.,0.,1.));
#453=DIRECTION('',(1.,0.,0.));
#454=DIRECTION('',(1.,0.,0.));
#455=DIRECTION('',(0.,0.,-1.));
#456=DIRECTION('',(-1.,0.,0.));
#457=DIRECTION('',(0.,0.,1.));
#458=DIRECTION('',(-1.,-1.73385654770296E-19,0.));
#459=DIRECTION('',(1.73385654770296E-19,-1.,0.));
#460=DIRECTION('',(-1.,0.,0.));
#461=DIRECTION('',(0.,0.,1.));
#462=DIRECTION('',(-1.,0.,0.));
#463=DIRECTION('',(0.,0.,1.));
#464=DIRECTION('',(-1.,0.,0.));
#465=DIRECTION('',(0.,0.,1.));
#466=DIRECTION('',(1.,0.,0.));
#467=DIRECTION('',(0.,0.,-1.));
#468=DIRECTION('',(-1.,0.,0.));
#469=DIRECTION('',(0.,0.,1.));
#470=DIRECTION('',(-1.,0.,0.));
#471=DIRECTION('',(0.,0.,1.));
#472=DIRECTION('',(1.,0.,0.));
#473=DIRECTION('',(0.,0.,-1.));
#474=DIRECTION('',(-1.,0.,0.));
#475=DIRECTION('',(0.,0.,1.));
#476=DIRECTION('',(-1.,0.,0.));
#477=DIRECTION('',(0.,0.,1.));
#478=DIRECTION('',(1.,0.,0.));
#479=DIRECTION('',(0.,0.,-1.));
#480=DIRECTION('',(1.,0.,0.));
#481=DIRECTION('',(0.,0.,-1.));
#482=DIRECTION('',(-1.,0.,0.));
#483=DIRECTION('',(0.,0.,1.));
#484=DIRECTION('',(1.,0.,0.));
#485=DIRECTION('',(0.,0.,-1.));
#486=DIRECTION('',(-1.,0.,0.));
#487=DIRECTION('',(0.,0.,1.));
#488=DIRECTION('',(-1.,0.,0.));
#489=DIRECTION('',(0.,0.,1.));
#490=DIRECTION('',(1.,0.,0.));
#491=DIRECTION('',(0.,0.,-1.));
#492=DIRECTION('',(1.,0.,0.));
#493=DIRECTION('',(0.,0.,-1.));
#494=DIRECTION('',(-1.,0.,0.));
#495=DIRECTION('',(0.,0.,1.));
#496=DIRECTION('',(1.,0.,0.));
#497=DIRECTION('',(0.,0.,-1.));
#498=DIRECTION('',(-1.,0.,0.));
#499=DIRECTION('',(0.,0.,1.));
#500=DIRECTION('',(-1.,0.,0.));
#501=DIRECTION('',(0.,0.,1.));
#502=DIRECTION('',(1.,0.,0.));
#503=DIRECTION('',(0.,0.,-1.));
#504=DIRECTION('',(1.,0.,0.));
#505=DIRECTION('',(0.,0.,-1.));
#506=DIRECTION('',(-1.,0.,0.));
#507=DIRECTION('',(0.,0.,1.));
#508=DIRECTION('',(1.,0.,0.));
#509=DIRECTION('',(0.,0.,-1.));
#510=DIRECTION('',(-1.,0.,0.));
#511=DIRECTION('',(0.,0.,1.));
#512=DIRECTION('',(-1.,0.,0.));
#513=DIRECTION('',(0.,0.,1.));
#514=DIRECTION('',(1.,0.,0.));
#515=DIRECTION('',(0.,0.,-1.));
#516=DIRECTION('',(1.,0.,0.));
#517=DIRECTION('',(0.,0.,-1.));
#518=DIRECTION('',(-1.,0.,0.));
#519=DIRECTION('',(0.,0.,1.));
#520=DIRECTION('',(1.,0.,0.));
#521=DIRECTION('',(0.,0.,-1.));
#522=DIRECTION('',(-1.,0.,0.));
#523=DIRECTION('',(0.,0.,1.));
#524=DIRECTION('',(-1.,0.,0.));
#525=DIRECTION('',(0.,0.,1.));
#526=DIRECTION('',(1.,0.,0.));
#527=DIRECTION('',(0.,0.,-1.));
#528=DIRECTION('',(1.,0.,0.));
#529=DIRECTION('',(0.,0.,-1.));
#530=DIRECTION('',(-1.,0.,0.));
#531=DIRECTION('',(0.,0.,1.));
#532=DIRECTION('',(1.,0.,0.));
#533=DIRECTION('',(0.,0.,-1.));
#534=DIRECTION('',(-1.,0.,0.));
#535=DIRECTION('',(0.,0.,1.));
#536=DIRECTION('',(-1.,0.,0.));
#537=DIRECTION('',(0.,0.,1.));
#538=DIRECTION('',(1.,0.,0.));
#539=DIRECTION('',(0.,0.,-1.));
#540=DIRECTION('',(1.,0.,0.));
#541=DIRECTION('',(0.,0.,-1.));
#542=DIRECTION('',(1.,0.,0.));
#543=DIRECTION('',(0.,0.,-1.));
#544=DIRECTION('',(1.,0.,0.));
#545=DIRECTION('',(0.,0.,-1.));
#546=DIRECTION('',(1.,0.,0.));
#547=DIRECTION('',(0.,0.,-1.));
#548=DIRECTION('',(1.,0.,0.));
#549=DIRECTION('',(0.,0.,-1.));
#550=DIRECTION('',(-1.,0.,0.));
#551=DIRECTION('',(0.,0.,1.));
#552=DIRECTION('',(1.,0.,0.));
#553=DIRECTION('',(0.,0.,-1.));
#554=DIRECTION('',(1.,0.,0.));
#555=DIRECTION('',(0.,0.,-1.));
#556=DIRECTION('',(1.,0.,0.));
#557=DIRECTION('',(0.,0.,-1.));
#558=DIRECTION('',(1.,0.,0.));
#559=DIRECTION('',(0.,0.,-1.));
#560=DIRECTION('',(1.,0.,0.));
#561=DIRECTION('',(0.,0.,-1.));
#562=DIRECTION('',(1.,0.,0.));
#563=DIRECTION('',(0.,0.,-1.));
#564=DIRECTION('',(1.,0.,0.));
#565=DIRECTION('',(0.,0.,-1.));
#566=DIRECTION('',(1.,0.,0.));
#567=DIRECTION('',(0.,0.,-1.));
#568=DIRECTION('',(1.,0.,0.));
#569=DIRECTION('',(0.,0.,-1.));
#570=DIRECTION('',(1.,0.,0.));
#571=DIRECTION('',(0.,0.,-1.));
#572=DIRECTION('',(1.,0.,0.));
#573=DIRECTION('',(0.,0.,-1.));
#574=DIRECTION('',(1.,0.,0.));
#575=DIRECTION('',(0.,0.,-1.));
#576=DIRECTION('',(-1.,0.,0.));
#577=DIRECTION('',(0.,0.,1.));
#578=DIRECTION('',(-1.,0.,0.));
#579=DIRECTION('',(0.,0.,1.));
#580=DIRECTION('',(1.,1.73385654770296E-19,0.));
#581=DIRECTION('',(-1.73385654770296E-19,1.,0.));
#582=DIRECTION('',(-1.,-1.73385654770296E-19,0.));
#583=DIRECTION('',(1.73385654770296E-19,-1.,0.));
#584=CARTESIAN_POINT('',(0.,0.,0.));
#585=CARTESIAN_POINT('',(2.,0.,0.));
#586=CARTESIAN_POINT('',(145.,0.,0.));
#587=CARTESIAN_POINT('',(145.,0.,10.8719725431314));
#588=CARTESIAN_POINT('',(140.,-2.45280159299109E-20,0.));
#589=CARTESIAN_POINT('',(140.,-10.8065189577073,0.));
#590=CARTESIAN_POINT('',(145.,0.,0.));
#591=CARTESIAN_POINT('',(145.,0.,0.));
#592=CARTESIAN_POINT('',(145.,0.,13.));
#593=CARTESIAN_POINT('',(-30.,0.,0.));
#594=CARTESIAN_POINT('',(141.470353566305,0.,0.));
#595=CARTESIAN_POINT('',(141.470353566305,0.,-16.));
#596=CARTESIAN_POINT('',(142.,0.,0.));
#597=CARTESIAN_POINT('',(142.,0.,16.));
#598=CARTESIAN_POINT('',(130.,0.,0.));
#599=CARTESIAN_POINT('',(121.688089128631,0.,0.));
#600=CARTESIAN_POINT('',(121.688089128631,0.,-14.7446807088779));
#601=CARTESIAN_POINT('',(139.974220492439,0.,0.));
#602=CARTESIAN_POINT('',(139.974220492439,0.,15.6003049485176));
#603=CARTESIAN_POINT('',(121.14910634872,0.,0.));
#604=CARTESIAN_POINT('',(116.055841147813,0.,0.));
#605=CARTESIAN_POINT('',(116.055841147813,0.,-15.1163245352982));
#606=CARTESIAN_POINT('',(120.509364498644,0.,0.));
#607=CARTESIAN_POINT('',(120.509364498644,0.,-15.0152599523823));
#608=CARTESIAN_POINT('',(107.4,0.,0.));
#609=CARTESIAN_POINT('',(99.0984086246005,0.,0.));
#610=CARTESIAN_POINT('',(99.0984086246005,0.,-15.257983899172));
#611=CARTESIAN_POINT('',(114.867634040952,0.,0.));
#612=CARTESIAN_POINT('',(114.867634040952,0.,14.9001301137386));
#613=CARTESIAN_POINT('',(98.5600520001183,0.,0.));
#614=CARTESIAN_POINT('',(93.4558411478128,0.,0.));
#615=CARTESIAN_POINT('',(93.4558411478128,0.,-15.6291902809047));
#616=CARTESIAN_POINT('',(97.9212319190089,0.,0.));
#617=CARTESIAN_POINT('',(97.9212319190089,0.,-15.5278563885465));
#618=CARTESIAN_POINT('',(84.8,0.,0.));
#619=CARTESIAN_POINT('',(76.4984086246005,0.,0.));
#620=CARTESIAN_POINT('',(76.4984086246005,0.,-15.7708496447784));
#621=CARTESIAN_POINT('',(92.2676340409517,0.,0.));
#622=CARTESIAN_POINT('',(92.2676340409517,0.,15.4129958593451));
#623=CARTESIAN_POINT('',(75.9600520001183,0.,0.));
#624=CARTESIAN_POINT('',(70.8679421485039,0.,0.));
#625=CARTESIAN_POINT('',(70.8679421485039,0.,-16.1417814163898));
#626=CARTESIAN_POINT('',(75.321231919009,0.,0.));
#627=CARTESIAN_POINT('',(75.321231919009,0.,-16.040722134153));
#628=CARTESIAN_POINT('',(62.2,0.,0.));
#629=CARTESIAN_POINT('',(53.8880891286311,0.,0.));
#630=CARTESIAN_POINT('',(53.8880891286311,0.,-16.2832779456973));
#631=CARTESIAN_POINT('',(69.6781566502483,0.,0.));
#632=CARTESIAN_POINT('',(69.6781566502483,0.,15.9249511867305));
#633=CARTESIAN_POINT('',(53.3491063487203,0.,0.));
#634=CARTESIAN_POINT('',(48.2558411478128,0.,0.));
#635=CARTESIAN_POINT('',(48.2558411478128,0.,-16.6549217721176));
#636=CARTESIAN_POINT('',(52.709364498644,0.,0.));
#637=CARTESIAN_POINT('',(52.709364498644,0.,-16.5538571892017));
#638=CARTESIAN_POINT('',(39.6,0.,0.));
#639=CARTESIAN_POINT('',(31.2984086246005,0.,0.));
#640=CARTESIAN_POINT('',(31.2984086246005,0.,-16.7965811359914));
#641=CARTESIAN_POINT('',(47.0676340409517,0.,0.));
#642=CARTESIAN_POINT('',(47.0676340409517,0.,16.4387273505581));
#643=CARTESIAN_POINT('',(30.7600520001183,0.,0.));
#644=CARTESIAN_POINT('',(25.6679421485038,0.,0.));
#645=CARTESIAN_POINT('',(25.6679421485038,0.,-17.1675129076028));
#646=CARTESIAN_POINT('',(30.1212319190089,0.,0.));
#647=CARTESIAN_POINT('',(30.1212319190089,0.,-17.066453625366));
#648=CARTESIAN_POINT('',(17.,0.,0.));
#649=CARTESIAN_POINT('',(8.68808912863109,0.,0.));
#650=CARTESIAN_POINT('',(8.68808912863109,0.,-17.3090094369103));
#651=CARTESIAN_POINT('',(24.4781566502482,0.,0.));
#652=CARTESIAN_POINT('',(24.4781566502482,0.,16.9506826779434));
#653=CARTESIAN_POINT('',(8.14910634872027,0.,0.));
#654=CARTESIAN_POINT('',(7.50936449864392,0.,0.));
#655=CARTESIAN_POINT('',(7.50936449864392,0.,-17.5795886804147));
#656=CARTESIAN_POINT('',(3.0680620007183,0.,0.));
#657=CARTESIAN_POINT('',(3.0680620007183,0.,-17.6803759333821));
#658=CARTESIAN_POINT('',(0.,0.,0.));
#659=CARTESIAN_POINT('',(0.,0.,0.));
#660=CARTESIAN_POINT('',(0.,0.,-7.3));
#661=CARTESIAN_POINT('',(0.,0.,0.));
#662=CARTESIAN_POINT('',(0.,0.,-14.681148105414));
#663=CARTESIAN_POINT('',(3.,0.,0.));
#664=CARTESIAN_POINT('',(142.,0.,0.));
#665=CARTESIAN_POINT('',(141.470353566305,0.,0.));
#666=CARTESIAN_POINT('',(120.441302497926,0.,0.));
#667=CARTESIAN_POINT('',(115.987779147094,0.,0.));
#668=CARTESIAN_POINT('',(97.8531699182906,0.,0.));
#669=CARTESIAN_POINT('',(93.3877791470945,0.,0.));
#670=CARTESIAN_POINT('',(75.2531699182906,0.,0.));
#671=CARTESIAN_POINT('',(70.7998801477855,0.,0.));
#672=CARTESIAN_POINT('',(52.6413024979257,0.,0.));
#673=CARTESIAN_POINT('',(48.1877791470945,0.,0.));
#674=CARTESIAN_POINT('',(30.0531699182906,0.,0.));
#675=CARTESIAN_POINT('',(25.5998801477855,0.,0.));
#676=CARTESIAN_POINT('',(7.4413024979257,0.,0.));
#677=CARTESIAN_POINT('',(28.5,0.,0.));
#678=CARTESIAN_POINT('',(2.,0.,0.));
#679=CARTESIAN_POINT('',(2.,0.,7.3));
#680=CARTESIAN_POINT('',(2.,9.00000000000001,0.));
#681=CARTESIAN_POINT('',(140.,1.62435948873677E-37,0.));
#682=MECHANICAL_DESIGN_GEOMETRIC_PRESENTATION_REPRESENTATION('',(#375),
#683);
#683=(
GEOMETRIC_REPRESENTATION_CONTEXT(3)
GLOBAL_UNCERTAINTY_ASSIGNED_CONTEXT((#684))
GLOBAL_UNIT_ASSIGNED_CONTEXT((#687,#686,#685))
REPRESENTATION_CONTEXT('10523_308605_Knickschutz_NW8_schwarz_00152302',
'TOP_LEVEL_ASSEMBLY_PART')
);
#684=UNCERTAINTY_MEASURE_WITH_UNIT(LENGTH_MEASURE(0.005),#687,
'DISTANCE_ACCURACY_VALUE','Maximum Tolerance applied to model');
#685=(
NAMED_UNIT(*)
SI_UNIT($,.STERADIAN.)
SOLID_ANGLE_UNIT()
);
#686=(
NAMED_UNIT(*)
PLANE_ANGLE_UNIT()
SI_UNIT($,.RADIAN.)
);
#687=(
LENGTH_UNIT()
NAMED_UNIT(*)
SI_UNIT(.MILLI.,.METRE.)
);
#688=PRODUCT_DEFINITION_SHAPE('','',#689);
#689=PRODUCT_DEFINITION('','',#691,#690);
#690=PRODUCT_DEFINITION_CONTEXT('',#697,'design');
#691=PRODUCT_DEFINITION_FORMATION_WITH_SPECIFIED_SOURCE('','',#693,
 .NOT_KNOWN.);
#692=PRODUCT_RELATED_PRODUCT_CATEGORY('','',(#693));
#693=PRODUCT('10523_308605_Knickschutz_NW8_schwarz_00152302',
'10523_308605_Knickschutz_NW8_schwarz_00152302',
'10523_308605_Knickschutz_NW8_schwarz_00152302',(#695));
#694=PRODUCT_CATEGORY('','');
#695=PRODUCT_CONTEXT('',#697,'mechanical');
#696=APPLICATION_PROTOCOL_DEFINITION('international standard',
'automotive_design',2010,#697);
#697=APPLICATION_CONTEXT(
'core data for automotive mechanical design processes');
ENDSEC;
END-ISO-10303-21;
