ISO-10303-21;
HEADER;
/* Generated by software containing ST-Developer
 * from STEP Tools, Inc. (www.steptools.com) 
 */
/* OPTION: strings as raw bytes, not using required /X/ escapes */

FILE_DESCRIPTION(
/* description */ ('Unknown'),
/* implementation_level */ '2;1');

FILE_NAME(
/* name */ '30851',
/* time_stamp */ '2018-11-13T08:04:30+01:00',
/* author */ ('Unknown'),
/* organization */ ('Unknown'),
/* preprocessor_version */ 'ST-DEVELOPER v16.7',
/* originating_system */ 'DEX',
/* authorisation */ $);

FILE_SCHEMA (('AUTOMOTIVE_DESIGN {1 0 10303 214 3 1 1}'));
ENDSEC;

DATA;
#10=PROPERTY_DEFINITION_REPRESENTATION(#14,#12);
#11=PROPERTY_DEFINITION_REPRESENTATION(#15,#13);
#12=REPRESENTATION('',(#16),#332);
#13=REPRESENTATION('',(#17),#332);
#14=PROPERTY_DEFINITION('pmi validation property','',#337);
#15=PROPERTY_DEFINITION('pmi validation property','',#337);
#16=VALUE_REPRESENTATION_ITEM('number of annotations',COUNT_MEASURE(0.));
#17=VALUE_REPRESENTATION_ITEM('number of views',COUNT_MEASURE(0.));
#18=SHAPE_REPRESENTATION_RELATIONSHIP('','',#195,#19);
#19=ADVANCED_BREP_SHAPE_REPRESENTATION('',(#193),#332);
#20=PLANE('',#218);
#21=PLANE('',#219);
#22=PLANE('',#220);
#23=DEGENERATE_TOROIDAL_SURFACE('',#217,18.1,30.,.F.);
#24=B_SPLINE_CURVE_WITH_KNOTS('',3,(#311,#312,#313,#314,#315),
 .UNSPECIFIED.,.F.,.F.,(4,1,4),(2.67628856472159E-7,0.000906263233870072,
0.00181225883888367),.UNSPECIFIED.);
#25=B_SPLINE_CURVE_WITH_KNOTS('',3,(#317,#318,#319,#320,#321),
 .UNSPECIFIED.,.F.,.F.,(4,1,4),(1.96951836573108E-7,0.000908749974723711,
0.00181730299761085),.UNSPECIFIED.);
#26=TOROIDAL_SURFACE('',#214,8.29999999999999,2.);
#27=TOROIDAL_SURFACE('',#215,9.89999999999999,2.);
#28=TOROIDAL_SURFACE('',#216,12.3,2.);
#29=CONICAL_SURFACE('',#201,11.9,1.53588974175501);
#30=CONICAL_SURFACE('',#204,7.5,0.00872664625997165);
#31=CONICAL_SURFACE('',#206,6.45277586510894,1.53588974175501);
#32=CONICAL_SURFACE('',#211,10.3,0.104719755119659);
#33=ELLIPSE('',#200,11.907253577156,11.9);
#34=LINE('',#280,#39);
#35=LINE('',#285,#40);
#36=LINE('',#325,#41);
#37=LINE('',#327,#42);
#38=LINE('',#329,#43);
#39=VECTOR('',#227,1000.);
#40=VECTOR('',#230,1000.);
#41=VECTOR('',#269,1000.);
#42=VECTOR('',#270,1000.);
#43=VECTOR('',#273,1000.);
#44=ORIENTED_EDGE('',*,*,#80,.T.);
#45=ORIENTED_EDGE('',*,*,#81,.F.);
#46=ORIENTED_EDGE('',*,*,#82,.T.);
#47=ORIENTED_EDGE('',*,*,#83,.T.);
#48=ORIENTED_EDGE('',*,*,#84,.F.);
#49=ORIENTED_EDGE('',*,*,#85,.T.);
#50=ORIENTED_EDGE('',*,*,#86,.F.);
#51=ORIENTED_EDGE('',*,*,#87,.F.);
#52=ORIENTED_EDGE('',*,*,#86,.T.);
#53=ORIENTED_EDGE('',*,*,#88,.T.);
#54=ORIENTED_EDGE('',*,*,#87,.T.);
#55=ORIENTED_EDGE('',*,*,#89,.T.);
#56=ORIENTED_EDGE('',*,*,#90,.T.);
#57=ORIENTED_EDGE('',*,*,#91,.T.);
#58=ORIENTED_EDGE('',*,*,#92,.T.);
#59=ORIENTED_EDGE('',*,*,#88,.F.);
#60=ORIENTED_EDGE('',*,*,#90,.F.);
#61=ORIENTED_EDGE('',*,*,#93,.F.);
#62=ORIENTED_EDGE('',*,*,#94,.F.);
#63=ORIENTED_EDGE('',*,*,#82,.F.);
#64=ORIENTED_EDGE('',*,*,#85,.F.);
#65=ORIENTED_EDGE('',*,*,#89,.F.);
#66=ORIENTED_EDGE('',*,*,#92,.F.);
#67=ORIENTED_EDGE('',*,*,#91,.F.);
#68=ORIENTED_EDGE('',*,*,#80,.F.);
#69=ORIENTED_EDGE('',*,*,#84,.T.);
#70=ORIENTED_EDGE('',*,*,#95,.F.);
#71=ORIENTED_EDGE('',*,*,#96,.F.);
#72=ORIENTED_EDGE('',*,*,#93,.T.);
#73=ORIENTED_EDGE('',*,*,#81,.T.);
#74=ORIENTED_EDGE('',*,*,#96,.T.);
#75=ORIENTED_EDGE('',*,*,#97,.F.);
#76=ORIENTED_EDGE('',*,*,#94,.T.);
#77=ORIENTED_EDGE('',*,*,#97,.T.);
#78=ORIENTED_EDGE('',*,*,#95,.T.);
#79=ORIENTED_EDGE('',*,*,#83,.F.);
#80=EDGE_CURVE('',#98,#98,#113,.F.);
#81=EDGE_CURVE('',#99,#100,#34,.T.);
#82=EDGE_CURVE('',#99,#101,#114,.T.);
#83=EDGE_CURVE('',#101,#102,#35,.T.);
#84=EDGE_CURVE('',#100,#102,#33,.T.);
#85=EDGE_CURVE('',#103,#103,#115,.T.);
#86=EDGE_CURVE('',#104,#104,#116,.T.);
#87=EDGE_CURVE('',#105,#105,#117,.T.);
#88=EDGE_CURVE('',#106,#106,#118,.T.);
#89=EDGE_CURVE('',#107,#107,#119,.F.);
#90=EDGE_CURVE('',#108,#108,#120,.F.);
#91=EDGE_CURVE('',#109,#109,#121,.T.);
#92=EDGE_CURVE('',#110,#110,#122,.T.);
#93=EDGE_CURVE('',#111,#99,#24,.T.);
#94=EDGE_CURVE('',#101,#111,#25,.T.);
#95=EDGE_CURVE('',#112,#102,#36,.T.);
#96=EDGE_CURVE('',#100,#112,#37,.T.);
#97=EDGE_CURVE('',#111,#112,#38,.T.);
#98=VERTEX_POINT('',#279);
#99=VERTEX_POINT('',#281);
#100=VERTEX_POINT('',#282);
#101=VERTEX_POINT('',#284);
#102=VERTEX_POINT('',#286);
#103=VERTEX_POINT('',#290);
#104=VERTEX_POINT('',#292);
#105=VERTEX_POINT('',#295);
#106=VERTEX_POINT('',#298);
#107=VERTEX_POINT('',#301);
#108=VERTEX_POINT('',#303);
#109=VERTEX_POINT('',#306);
#110=VERTEX_POINT('',#308);
#111=VERTEX_POINT('',#316);
#112=VERTEX_POINT('',#326);
#113=CIRCLE('',#198,11.9);
#114=CIRCLE('',#199,11.9);
#115=CIRCLE('',#202,9.96979899340499);
#116=CIRCLE('',#203,7.5);
#117=CIRCLE('',#205,6.45277586510894);
#118=CIRCLE('',#207,8.36979899340498);
#119=CIRCLE('',#209,10.3);
#120=CIRCLE('',#210,10.3);
#121=CIRCLE('',#212,11.7356568610482);
#122=CIRCLE('',#213,10.3109562092634);
#123=EDGE_LOOP('',(#44));
#124=EDGE_LOOP('',(#45,#46,#47,#48));
#125=EDGE_LOOP('',(#49));
#126=EDGE_LOOP('',(#50));
#127=EDGE_LOOP('',(#51));
#128=EDGE_LOOP('',(#52));
#129=EDGE_LOOP('',(#53));
#130=EDGE_LOOP('',(#54));
#131=EDGE_LOOP('',(#55));
#132=EDGE_LOOP('',(#56));
#133=EDGE_LOOP('',(#57));
#134=EDGE_LOOP('',(#58));
#135=EDGE_LOOP('',(#59));
#136=EDGE_LOOP('',(#60));
#137=EDGE_LOOP('',(#61,#62,#63));
#138=EDGE_LOOP('',(#64));
#139=EDGE_LOOP('',(#65));
#140=EDGE_LOOP('',(#66));
#141=EDGE_LOOP('',(#67));
#142=EDGE_LOOP('',(#68));
#143=EDGE_LOOP('',(#69,#70,#71));
#144=EDGE_LOOP('',(#72,#73,#74,#75));
#145=EDGE_LOOP('',(#76,#77,#78,#79));
#146=FACE_BOUND('',#123,.T.);
#147=FACE_BOUND('',#124,.T.);
#148=FACE_BOUND('',#125,.T.);
#149=FACE_BOUND('',#126,.T.);
#150=FACE_BOUND('',#127,.T.);
#151=FACE_BOUND('',#128,.T.);
#152=FACE_BOUND('',#129,.T.);
#153=FACE_BOUND('',#130,.T.);
#154=FACE_BOUND('',#131,.T.);
#155=FACE_BOUND('',#132,.T.);
#156=FACE_BOUND('',#133,.T.);
#157=FACE_BOUND('',#134,.T.);
#158=FACE_BOUND('',#135,.T.);
#159=FACE_BOUND('',#136,.T.);
#160=FACE_BOUND('',#137,.T.);
#161=FACE_BOUND('',#138,.T.);
#162=FACE_BOUND('',#139,.T.);
#163=FACE_BOUND('',#140,.T.);
#164=FACE_BOUND('',#141,.T.);
#165=FACE_BOUND('',#142,.T.);
#166=FACE_BOUND('',#143,.T.);
#167=FACE_BOUND('',#144,.T.);
#168=FACE_BOUND('',#145,.T.);
#169=CYLINDRICAL_SURFACE('',#197,11.9);
#170=CYLINDRICAL_SURFACE('',#208,10.3);
#171=ADVANCED_FACE('',(#146,#147),#169,.T.);
#172=ADVANCED_FACE('',(#148,#149),#29,.T.);
#173=ADVANCED_FACE('',(#150,#151),#30,.F.);
#174=ADVANCED_FACE('',(#152,#153),#31,.T.);
#175=ADVANCED_FACE('',(#154,#155),#170,.T.);
#176=ADVANCED_FACE('',(#156,#157),#32,.T.);
#177=ADVANCED_FACE('',(#158,#159),#26,.T.);
#178=ADVANCED_FACE('',(#160,#161),#27,.T.);
#179=ADVANCED_FACE('',(#162,#163),#28,.F.);
#180=ADVANCED_FACE('',(#164,#165),#23,.F.);
#181=ADVANCED_FACE('',(#166),#20,.T.);
#182=ADVANCED_FACE('',(#167),#21,.F.);
#183=ADVANCED_FACE('',(#168),#22,.F.);
#184=CLOSED_SHELL('',(#171,#172,#173,#174,#175,#176,#177,#178,#179,#180,
#181,#182,#183));
#185=STYLED_ITEM('',(#186),#193);
#186=PRESENTATION_STYLE_ASSIGNMENT((#187));
#187=SURFACE_STYLE_USAGE(.BOTH.,#188);
#188=SURFACE_SIDE_STYLE('',(#189));
#189=SURFACE_STYLE_FILL_AREA(#190);
#190=FILL_AREA_STYLE('',(#191));
#191=FILL_AREA_STYLE_COLOUR('',#192);
#192=COLOUR_RGB('',0.,0.258823543787003,0.549019634723663);
#193=MANIFOLD_SOLID_BREP('',#184);
#194=SHAPE_DEFINITION_REPRESENTATION(#337,#195);
#195=SHAPE_REPRESENTATION(
'19471_30851_TPE-Knickschutz_NW_06_blau_00247891',(#196),#332);
#196=AXIS2_PLACEMENT_3D('',#276,#221,#222);
#197=AXIS2_PLACEMENT_3D('',#277,#223,#224);
#198=AXIS2_PLACEMENT_3D('',#278,#225,#226);
#199=AXIS2_PLACEMENT_3D('',#283,#228,#229);
#200=AXIS2_PLACEMENT_3D('',#287,#231,#232);
#201=AXIS2_PLACEMENT_3D('',#288,#233,#234);
#202=AXIS2_PLACEMENT_3D('',#289,#235,#236);
#203=AXIS2_PLACEMENT_3D('',#291,#237,#238);
#204=AXIS2_PLACEMENT_3D('',#293,#239,#240);
#205=AXIS2_PLACEMENT_3D('',#294,#241,#242);
#206=AXIS2_PLACEMENT_3D('',#296,#243,#244);
#207=AXIS2_PLACEMENT_3D('',#297,#245,#246);
#208=AXIS2_PLACEMENT_3D('',#299,#247,#248);
#209=AXIS2_PLACEMENT_3D('',#300,#249,#250);
#210=AXIS2_PLACEMENT_3D('',#302,#251,#252);
#211=AXIS2_PLACEMENT_3D('',#304,#253,#254);
#212=AXIS2_PLACEMENT_3D('',#305,#255,#256);
#213=AXIS2_PLACEMENT_3D('',#307,#257,#258);
#214=AXIS2_PLACEMENT_3D('',#309,#259,#260);
#215=AXIS2_PLACEMENT_3D('',#310,#261,#262);
#216=AXIS2_PLACEMENT_3D('',#322,#263,#264);
#217=AXIS2_PLACEMENT_3D('',#323,#265,#266);
#218=AXIS2_PLACEMENT_3D('',#324,#267,#268);
#219=AXIS2_PLACEMENT_3D('',#328,#271,#272);
#220=AXIS2_PLACEMENT_3D('',#330,#274,#275);
#221=DIRECTION('',(0.,0.,1.));
#222=DIRECTION('',(1.,0.,0.));
#223=DIRECTION('',(-6.12303176911189E-17,-1.,-6.12303176911189E-17));
#224=DIRECTION('',(0.,6.12303176911189E-17,-1.));
#225=DIRECTION('',(6.12303176911189E-17,1.,6.12303176911189E-17));
#226=DIRECTION('',(0.,-6.12303176911189E-17,1.));
#227=DIRECTION('',(0.,1.,0.));
#228=DIRECTION('',(6.12303176911189E-17,1.,6.12303176911189E-17));
#229=DIRECTION('',(0.,-6.12303176911189E-17,1.));
#230=DIRECTION('',(0.,1.,0.));
#231=DIRECTION('',(0.030223850723657,-0.999390827019096,0.0174497483512504));
#232=DIRECTION('',(-0.865497844507676,-0.0348994967025009,-0.499695413509548));
#233=DIRECTION('',(6.12303176911189E-17,1.,6.12303176911189E-17));
#234=DIRECTION('',(0.,-6.12303176911189E-17,1.));
#235=DIRECTION('',(-6.12303176911189E-17,-1.,-6.12303176911189E-17));
#236=DIRECTION('',(0.,6.12303176911189E-17,-1.));
#237=DIRECTION('',(-6.12303176911189E-17,-1.,-6.12303176911189E-17));
#238=DIRECTION('',(0.,6.12303176911189E-17,-1.));
#239=DIRECTION('',(-6.12303176911189E-17,-1.,-6.12303176911189E-17));
#240=DIRECTION('',(0.,6.12303176911189E-17,-1.));
#241=DIRECTION('',(-6.12303176911189E-17,-1.,-6.12303176911189E-17));
#242=DIRECTION('',(0.,6.12303176911189E-17,-1.));
#243=DIRECTION('',(-6.12303176911189E-17,-1.,-6.12303176911189E-17));
#244=DIRECTION('',(0.,6.12303176911189E-17,-1.));
#245=DIRECTION('',(6.12303176911189E-17,1.,6.12303176911189E-17));
#246=DIRECTION('',(0.,-6.12303176911189E-17,1.));
#247=DIRECTION('',(-6.12303176911189E-17,-1.,-6.12303176911189E-17));
#248=DIRECTION('',(0.,6.12303176911189E-17,-1.));
#249=DIRECTION('',(-6.12303176911189E-17,-1.,-6.12303176911189E-17));
#250=DIRECTION('',(0.,6.12303176911189E-17,-1.));
#251=DIRECTION('',(6.12303176911189E-17,1.,6.12303176911189E-17));
#252=DIRECTION('',(0.,-6.12303176911189E-17,1.));
#253=DIRECTION('',(-6.12303176911189E-17,-1.,-6.12303176911189E-17));
#254=DIRECTION('',(0.,6.12303176911189E-17,-1.));
#255=DIRECTION('',(6.12303176911189E-17,1.,6.12303176911189E-17));
#256=DIRECTION('',(0.,-6.12303176911189E-17,1.));
#257=DIRECTION('',(-6.12303176911189E-17,-1.,-6.12303176911189E-17));
#258=DIRECTION('',(0.,6.12303176911189E-17,-1.));
#259=DIRECTION('',(6.12303176911189E-17,1.,6.12303176911189E-17));
#260=DIRECTION('',(0.,-6.12303176911189E-17,1.));
#261=DIRECTION('',(6.12303176911189E-17,1.,6.12303176911189E-17));
#262=DIRECTION('',(0.,-6.12303176911189E-17,1.));
#263=DIRECTION('',(-6.12303176911189E-17,-1.,-6.12303176911189E-17));
#264=DIRECTION('',(0.,6.12303176911189E-17,-1.));
#265=DIRECTION('',(6.12303176911189E-17,1.,6.12303176911189E-17));
#266=DIRECTION('',(0.,-6.12303176911189E-17,1.));
#267=DIRECTION('',(0.030223850723657,-0.999390827019096,0.0174497483512504));
#268=DIRECTION('',(0.999543015889482,0.0302284532610988,0.));
#269=DIRECTION('',(-0.0871462529007716,0.0147565479775298,0.996086228645463));
#270=DIRECTION('',(-0.81906285191642,-0.0147565479775298,0.573513983179423));
#271=DIRECTION('',(-0.573576436351048,0.,-0.819152044288991));
#272=DIRECTION('',(-0.819152044288991,0.,0.573576436351048));
#273=DIRECTION('',(0.,1.,0.));
#274=DIRECTION('',(-0.996194698091745,0.,-0.0871557427476603));
#275=DIRECTION('',(-0.0871557427476603,0.,0.996194698091745));
#276=CARTESIAN_POINT('',(0.,0.,0.));
#277=CARTESIAN_POINT('',(-3.67381906146713E-15,-60.,0.));
#278=CARTESIAN_POINT('',(2.12639218293802E-15,34.7277666215088,5.80021124440515E-15));
#279=CARTESIAN_POINT('',(2.12639218293802E-15,34.7277666215088,11.9));
#280=CARTESIAN_POINT('',(10.7692502160576,-121.880975283033,5.06292897283207));
#281=CARTESIAN_POINT('',(10.7692502160576,2.08502893537784,5.06292897283207));
#282=CARTESIAN_POINT('',(10.7692502160576,2.74853014127402,5.06292897283207));
#283=CARTESIAN_POINT('',(1.2766698410836E-16,2.08502893537784,3.80148604557549E-15));
#284=CARTESIAN_POINT('',(9.76925021605763,2.08502893537783,6.79497978040095));
#285=CARTESIAN_POINT('',(9.76925021605763,-121.880975283033,6.79497978040095));
#286=CARTESIAN_POINT('',(9.76925021605763,2.74853014127402,6.79497978040095));
#287=CARTESIAN_POINT('',(1.429386769116E-16,2.3344428430482,3.81675773837873E-15));
#288=CARTESIAN_POINT('',(9.40812316399115E-18,0.15365138576369,3.68322718463112E-15));
#289=CARTESIAN_POINT('',(5.28094843642164E-18,0.0862472813396463,3.67910000990355E-15));
#290=CARTESIAN_POINT('',(5.28094843642164E-18,0.0862472813396469,-9.96979899340499));
#291=CARTESIAN_POINT('',(0.,0.,3.67381906146713E-15));
#292=CARTESIAN_POINT('',(0.,4.59227382683391E-16,-7.5));
#293=CARTESIAN_POINT('',(0.,0.,3.67381906146713E-15));
#294=CARTESIAN_POINT('',(7.34763812293427E-15,120.,1.10214571844014E-14));
#295=CARTESIAN_POINT('',(7.34763812293427E-15,120.,-6.45277586510893));
#296=CARTESIAN_POINT('',(7.34763812293427E-15,120.,1.10214571844014E-14));
#297=CARTESIAN_POINT('',(7.34353912527535E-15,119.933056077226,1.10173581867425E-14));
#298=CARTESIAN_POINT('',(7.34353912527535E-15,119.933056077226,8.369798993405));
#299=CARTESIAN_POINT('',(-3.67381906146713E-15,-60.,0.));
#300=CARTESIAN_POINT('',(3.16118651519541E-15,51.6277986853223,6.83500557666255E-15));
#301=CARTESIAN_POINT('',(3.16118651519541E-15,51.6277986853223,-10.3));
#302=CARTESIAN_POINT('',(7.22115308960341E-15,117.934274423188,1.08949721510705E-14));
#303=CARTESIAN_POINT('',(7.22115308960341E-15,117.934274423188,10.3));
#304=CARTESIAN_POINT('',(3.15476862524544E-15,51.5229831267563,6.82858768671257E-15));
#305=CARTESIAN_POINT('',(2.31840151334731E-15,37.8636205195384,5.99222057481444E-15));
#306=CARTESIAN_POINT('',(2.31840151334731E-15,37.8636205195384,11.7356568610482));
#307=CARTESIAN_POINT('',(3.14838589316813E-15,51.418741758787,6.82220495463526E-15));
#308=CARTESIAN_POINT('',(3.14838589316813E-15,51.418741758787,-10.3109562092634));
#309=CARTESIAN_POINT('',(7.22115308960341E-15,117.934274423188,1.08949721510705E-14));
#310=CARTESIAN_POINT('',(1.2766698410836E-16,2.08502893537784,3.80148604557549E-15));
#311=CARTESIAN_POINT('',(9.86541593811452,0.752690324823171,5.69580054754017));
#312=CARTESIAN_POINT('',(10.0910952681487,0.883041095635919,5.53777817943211));
#313=CARTESIAN_POINT('',(10.5196436477233,1.20564106633461,5.23770537356646));
#314=CARTESIAN_POINT('',(10.7692502160595,1.77727151069153,5.0629289728308));
#315=CARTESIAN_POINT('',(10.7692502160595,2.0850289353776,5.06292897283075));
#316=CARTESIAN_POINT('',(9.86541593811618,0.75269032482006,5.69580054753901));
#317=CARTESIAN_POINT('',(9.76925021605764,2.08502893537783,6.79497978040095));
#318=CARTESIAN_POINT('',(9.76925021605763,1.77749625323724,6.79497978040095));
#319=CARTESIAN_POINT('',(9.79566273235124,1.20735852115008,6.49308333771752));
#320=CARTESIAN_POINT('',(9.84138442454362,0.883148546934792,5.97048200458787));
#321=CARTESIAN_POINT('',(9.86541593811648,0.752690324825865,5.69580054753563));
#322=CARTESIAN_POINT('',(3.16118651519541E-15,51.6277986853223,6.83500557666255E-15));
#323=CARTESIAN_POINT('',(2.12639218293802E-15,34.7277666215088,5.80021124440515E-15));
#324=CARTESIAN_POINT('',(10.3057023050348,2.75,5.95));
#325=CARTESIAN_POINT('',(10.025665782408,2.7051110787087,3.86413644577464));
#326=CARTESIAN_POINT('',(9.86541593811618,2.73224631903136,5.69580054753901));
#327=CARTESIAN_POINT('',(8.35927321693412,2.70511107870869,6.75041303453038));
#328=CARTESIAN_POINT('',(9.86541593811618,-121.880975283033,5.69580054753901));
#329=CARTESIAN_POINT('',(9.86541593811618,-121.880975283033,5.69580054753901));
#330=CARTESIAN_POINT('',(9.86541593811618,-121.880975283033,5.69580054753901));
#331=MECHANICAL_DESIGN_GEOMETRIC_PRESENTATION_REPRESENTATION('',(#185),
#332);
#332=(
GEOMETRIC_REPRESENTATION_CONTEXT(3)
GLOBAL_UNCERTAINTY_ASSIGNED_CONTEXT((#333))
GLOBAL_UNIT_ASSIGNED_CONTEXT((#336,#335,#334))
REPRESENTATION_CONTEXT(
'19471_30851_TPE-Knickschutz_NW_06_blau_00247891',
'TOP_LEVEL_ASSEMBLY_PART')
);
#333=UNCERTAINTY_MEASURE_WITH_UNIT(LENGTH_MEASURE(0.005),#336,
'DISTANCE_ACCURACY_VALUE','Maximum Tolerance applied to model');
#334=(
NAMED_UNIT(*)
SI_UNIT($,.STERADIAN.)
SOLID_ANGLE_UNIT()
);
#335=(
NAMED_UNIT(*)
PLANE_ANGLE_UNIT()
SI_UNIT($,.RADIAN.)
);
#336=(
LENGTH_UNIT()
NAMED_UNIT(*)
SI_UNIT(.MILLI.,.METRE.)
);
#337=PRODUCT_DEFINITION_SHAPE('','',#338);
#338=PRODUCT_DEFINITION('','',#340,#339);
#339=PRODUCT_DEFINITION_CONTEXT('',#346,'design');
#340=PRODUCT_DEFINITION_FORMATION_WITH_SPECIFIED_SOURCE('','',#342,
 .NOT_KNOWN.);
#341=PRODUCT_RELATED_PRODUCT_CATEGORY('','',(#342));
#342=PRODUCT('19471_30851_TPE-Knickschutz_NW_06_blau_00247891',
'19471_30851_TPE-Knickschutz_NW_06_blau_00247891',
'19471_30851_TPE-Knickschutz_NW_06_blau_00247891',(#344));
#343=PRODUCT_CATEGORY('','');
#344=PRODUCT_CONTEXT('',#346,'mechanical');
#345=APPLICATION_PROTOCOL_DEFINITION('international standard',
'automotive_design',2010,#346);
#346=APPLICATION_CONTEXT(
'core data for automotive mechanical design processes');
ENDSEC;
END-ISO-10303-21;
