ISO-10303-21;
HEADER;
/* Generated by software containing ST-Developer
 * from STEP Tools, Inc. (www.steptools.com) 
 */

FILE_DESCRIPTION(
/* description */ (''),
/* implementation_level */ '2;1');

FILE_NAME(
/* name */ '901.139.stp',
/* time_stamp */ '2024-09-18T10:57:16+02:00',
/* author */ ('p.faeh'),
/* organization */ (''),
/* preprocessor_version */ 'ST-DEVELOPER v20',
/* originating_system */ 'Autodesk Inventor 2024',
/* authorisation */ '');

FILE_SCHEMA (('AUTOMOTIVE_DESIGN { 1 0 10303 214 3 1 1 }'));
ENDSEC;

DATA;
#10=MECHANICAL_DESIGN_GEOMETRIC_PRESENTATION_REPRESENTATION('',(#354,#355,
#356,#357,#358,#359,#360,#361,#362,#363,#364,#365,#366,#367,#368,#369,#370,
#371,#372),#672);
#11=SHAPE_REPRESENTATION_RELATIONSHIP('SRR','None',#679,#12);
#12=ADVANCED_BREP_SHAPE_REPRESENTATION('',(#13),#671);
#13=MANIFOLD_SOLID_BREP('Volumenk\X\F6rper1',#391);
#14=FACE_BOUND('',#74,.T.);
#15=FACE_BOUND('',#75,.T.);
#16=FACE_BOUND('',#76,.T.);
#17=FACE_BOUND('',#77,.T.);
#18=FACE_BOUND('',#78,.T.);
#19=FACE_BOUND('',#79,.T.);
#20=FACE_BOUND('',#80,.T.);
#21=FACE_BOUND('',#81,.T.);
#22=FACE_BOUND('',#82,.T.);
#23=FACE_BOUND('',#83,.T.);
#24=FACE_BOUND('',#85,.T.);
#25=FACE_BOUND('',#86,.T.);
#26=FACE_BOUND('',#87,.T.);
#27=FACE_BOUND('',#88,.T.);
#28=FACE_BOUND('',#89,.T.);
#29=FACE_BOUND('',#90,.T.);
#30=FACE_BOUND('',#91,.T.);
#31=FACE_BOUND('',#92,.T.);
#32=FACE_BOUND('',#93,.T.);
#33=FACE_BOUND('',#94,.T.);
#34=PLANE('',#444);
#35=PLANE('',#448);
#36=PLANE('',#452);
#37=PLANE('',#456);
#38=PLANE('',#457);
#39=FACE_OUTER_BOUND('',#57,.T.);
#40=FACE_OUTER_BOUND('',#58,.T.);
#41=FACE_OUTER_BOUND('',#59,.T.);
#42=FACE_OUTER_BOUND('',#60,.T.);
#43=FACE_OUTER_BOUND('',#61,.T.);
#44=FACE_OUTER_BOUND('',#62,.T.);
#45=FACE_OUTER_BOUND('',#63,.T.);
#46=FACE_OUTER_BOUND('',#64,.T.);
#47=FACE_OUTER_BOUND('',#65,.T.);
#48=FACE_OUTER_BOUND('',#66,.T.);
#49=FACE_OUTER_BOUND('',#67,.T.);
#50=FACE_OUTER_BOUND('',#68,.T.);
#51=FACE_OUTER_BOUND('',#69,.T.);
#52=FACE_OUTER_BOUND('',#70,.T.);
#53=FACE_OUTER_BOUND('',#71,.T.);
#54=FACE_OUTER_BOUND('',#72,.T.);
#55=FACE_OUTER_BOUND('',#73,.T.);
#56=FACE_OUTER_BOUND('',#84,.T.);
#57=EDGE_LOOP('',(#245,#246,#247,#248));
#58=EDGE_LOOP('',(#249,#250,#251,#252));
#59=EDGE_LOOP('',(#253,#254,#255,#256));
#60=EDGE_LOOP('',(#257,#258,#259,#260));
#61=EDGE_LOOP('',(#261,#262,#263,#264));
#62=EDGE_LOOP('',(#265,#266,#267,#268));
#63=EDGE_LOOP('',(#269,#270,#271,#272));
#64=EDGE_LOOP('',(#273,#274,#275,#276));
#65=EDGE_LOOP('',(#277,#278,#279,#280));
#66=EDGE_LOOP('',(#281,#282,#283,#284));
#67=EDGE_LOOP('',(#285,#286,#287,#288));
#68=EDGE_LOOP('',(#289,#290,#291,#292));
#69=EDGE_LOOP('',(#293,#294,#295,#296));
#70=EDGE_LOOP('',(#297,#298,#299,#300));
#71=EDGE_LOOP('',(#301,#302,#303,#304));
#72=EDGE_LOOP('',(#305,#306,#307,#308));
#73=EDGE_LOOP('',(#309,#310,#311,#312,#313,#314));
#74=EDGE_LOOP('',(#315));
#75=EDGE_LOOP('',(#316));
#76=EDGE_LOOP('',(#317));
#77=EDGE_LOOP('',(#318));
#78=EDGE_LOOP('',(#319));
#79=EDGE_LOOP('',(#320));
#80=EDGE_LOOP('',(#321));
#81=EDGE_LOOP('',(#322));
#82=EDGE_LOOP('',(#323));
#83=EDGE_LOOP('',(#324));
#84=EDGE_LOOP('',(#325,#326,#327,#328,#329,#330));
#85=EDGE_LOOP('',(#331));
#86=EDGE_LOOP('',(#332));
#87=EDGE_LOOP('',(#333));
#88=EDGE_LOOP('',(#334));
#89=EDGE_LOOP('',(#335));
#90=EDGE_LOOP('',(#336));
#91=EDGE_LOOP('',(#337));
#92=EDGE_LOOP('',(#338));
#93=EDGE_LOOP('',(#339));
#94=EDGE_LOOP('',(#340));
#95=LINE('',#575,#117);
#96=LINE('',#581,#118);
#97=LINE('',#587,#119);
#98=LINE('',#593,#120);
#99=LINE('',#599,#121);
#100=LINE('',#605,#122);
#101=LINE('',#611,#123);
#102=LINE('',#617,#124);
#103=LINE('',#623,#125);
#104=LINE('',#629,#126);
#105=LINE('',#634,#127);
#106=LINE('',#636,#128);
#107=LINE('',#638,#129);
#108=LINE('',#639,#130);
#109=LINE('',#644,#131);
#110=LINE('',#648,#132);
#111=LINE('',#650,#133);
#112=LINE('',#651,#134);
#113=LINE('',#656,#135);
#114=LINE('',#660,#136);
#115=LINE('',#662,#137);
#116=LINE('',#663,#138);
#117=VECTOR('',#464,17.5);
#118=VECTOR('',#471,3.5);
#119=VECTOR('',#478,3.5);
#120=VECTOR('',#485,3.5);
#121=VECTOR('',#492,3.5);
#122=VECTOR('',#499,3.5);
#123=VECTOR('',#506,3.5);
#124=VECTOR('',#513,3.5);
#125=VECTOR('',#520,3.5);
#126=VECTOR('',#527,3.5);
#127=VECTOR('',#532,10.);
#128=VECTOR('',#533,10.);
#129=VECTOR('',#534,10.);
#130=VECTOR('',#535,10.);
#131=VECTOR('',#540,10.);
#132=VECTOR('',#545,10.);
#133=VECTOR('',#546,10.);
#134=VECTOR('',#547,10.);
#135=VECTOR('',#552,10.);
#136=VECTOR('',#557,10.);
#137=VECTOR('',#558,10.);
#138=VECTOR('',#559,10.);
#139=CIRCLE('',#415,17.5);
#140=CIRCLE('',#416,17.5);
#141=CIRCLE('',#418,3.5);
#142=CIRCLE('',#419,3.5);
#143=CIRCLE('',#421,3.5);
#144=CIRCLE('',#422,3.5);
#145=CIRCLE('',#424,3.5);
#146=CIRCLE('',#425,3.5);
#147=CIRCLE('',#427,3.5);
#148=CIRCLE('',#428,3.5);
#149=CIRCLE('',#430,3.5);
#150=CIRCLE('',#431,3.5);
#151=CIRCLE('',#433,3.5);
#152=CIRCLE('',#434,3.5);
#153=CIRCLE('',#436,3.5);
#154=CIRCLE('',#437,3.5);
#155=CIRCLE('',#439,3.5);
#156=CIRCLE('',#440,3.5);
#157=CIRCLE('',#442,3.5);
#158=CIRCLE('',#443,3.5);
#159=CIRCLE('',#446,7.5);
#160=CIRCLE('',#447,7.5);
#161=CIRCLE('',#450,7.5);
#162=CIRCLE('',#451,7.5);
#163=CIRCLE('',#454,7.49999999999999);
#164=CIRCLE('',#455,7.49999999999999);
#165=VERTEX_POINT('',#572);
#166=VERTEX_POINT('',#574);
#167=VERTEX_POINT('',#578);
#168=VERTEX_POINT('',#580);
#169=VERTEX_POINT('',#584);
#170=VERTEX_POINT('',#586);
#171=VERTEX_POINT('',#590);
#172=VERTEX_POINT('',#592);
#173=VERTEX_POINT('',#596);
#174=VERTEX_POINT('',#598);
#175=VERTEX_POINT('',#602);
#176=VERTEX_POINT('',#604);
#177=VERTEX_POINT('',#608);
#178=VERTEX_POINT('',#610);
#179=VERTEX_POINT('',#614);
#180=VERTEX_POINT('',#616);
#181=VERTEX_POINT('',#620);
#182=VERTEX_POINT('',#622);
#183=VERTEX_POINT('',#626);
#184=VERTEX_POINT('',#628);
#185=VERTEX_POINT('',#632);
#186=VERTEX_POINT('',#633);
#187=VERTEX_POINT('',#635);
#188=VERTEX_POINT('',#637);
#189=VERTEX_POINT('',#641);
#190=VERTEX_POINT('',#643);
#191=VERTEX_POINT('',#647);
#192=VERTEX_POINT('',#649);
#193=VERTEX_POINT('',#653);
#194=VERTEX_POINT('',#655);
#195=VERTEX_POINT('',#659);
#196=VERTEX_POINT('',#661);
#197=EDGE_CURVE('',#165,#165,#139,.T.);
#198=EDGE_CURVE('',#165,#166,#95,.T.);
#199=EDGE_CURVE('',#166,#166,#140,.T.);
#200=EDGE_CURVE('',#167,#167,#141,.T.);
#201=EDGE_CURVE('',#167,#168,#96,.T.);
#202=EDGE_CURVE('',#168,#168,#142,.T.);
#203=EDGE_CURVE('',#169,#169,#143,.T.);
#204=EDGE_CURVE('',#169,#170,#97,.T.);
#205=EDGE_CURVE('',#170,#170,#144,.T.);
#206=EDGE_CURVE('',#171,#171,#145,.T.);
#207=EDGE_CURVE('',#171,#172,#98,.T.);
#208=EDGE_CURVE('',#172,#172,#146,.T.);
#209=EDGE_CURVE('',#173,#173,#147,.T.);
#210=EDGE_CURVE('',#173,#174,#99,.T.);
#211=EDGE_CURVE('',#174,#174,#148,.T.);
#212=EDGE_CURVE('',#175,#175,#149,.T.);
#213=EDGE_CURVE('',#175,#176,#100,.T.);
#214=EDGE_CURVE('',#176,#176,#150,.T.);
#215=EDGE_CURVE('',#177,#177,#151,.T.);
#216=EDGE_CURVE('',#177,#178,#101,.T.);
#217=EDGE_CURVE('',#178,#178,#152,.T.);
#218=EDGE_CURVE('',#179,#179,#153,.T.);
#219=EDGE_CURVE('',#179,#180,#102,.T.);
#220=EDGE_CURVE('',#180,#180,#154,.T.);
#221=EDGE_CURVE('',#181,#181,#155,.T.);
#222=EDGE_CURVE('',#181,#182,#103,.T.);
#223=EDGE_CURVE('',#182,#182,#156,.T.);
#224=EDGE_CURVE('',#183,#183,#157,.T.);
#225=EDGE_CURVE('',#183,#184,#104,.T.);
#226=EDGE_CURVE('',#184,#184,#158,.T.);
#227=EDGE_CURVE('',#185,#186,#105,.T.);
#228=EDGE_CURVE('',#187,#186,#106,.T.);
#229=EDGE_CURVE('',#187,#188,#107,.T.);
#230=EDGE_CURVE('',#188,#185,#108,.T.);
#231=EDGE_CURVE('',#186,#189,#159,.T.);
#232=EDGE_CURVE('',#190,#189,#109,.T.);
#233=EDGE_CURVE('',#190,#187,#160,.T.);
#234=EDGE_CURVE('',#189,#191,#110,.T.);
#235=EDGE_CURVE('',#192,#191,#111,.T.);
#236=EDGE_CURVE('',#192,#190,#112,.T.);
#237=EDGE_CURVE('',#191,#193,#161,.T.);
#238=EDGE_CURVE('',#194,#193,#113,.T.);
#239=EDGE_CURVE('',#194,#192,#162,.T.);
#240=EDGE_CURVE('',#193,#195,#114,.T.);
#241=EDGE_CURVE('',#196,#195,#115,.T.);
#242=EDGE_CURVE('',#196,#194,#116,.T.);
#243=EDGE_CURVE('',#195,#185,#163,.T.);
#244=EDGE_CURVE('',#188,#196,#164,.T.);
#245=ORIENTED_EDGE('',*,*,#197,.F.);
#246=ORIENTED_EDGE('',*,*,#198,.T.);
#247=ORIENTED_EDGE('',*,*,#199,.F.);
#248=ORIENTED_EDGE('',*,*,#198,.F.);
#249=ORIENTED_EDGE('',*,*,#200,.F.);
#250=ORIENTED_EDGE('',*,*,#201,.T.);
#251=ORIENTED_EDGE('',*,*,#202,.F.);
#252=ORIENTED_EDGE('',*,*,#201,.F.);
#253=ORIENTED_EDGE('',*,*,#203,.F.);
#254=ORIENTED_EDGE('',*,*,#204,.T.);
#255=ORIENTED_EDGE('',*,*,#205,.F.);
#256=ORIENTED_EDGE('',*,*,#204,.F.);
#257=ORIENTED_EDGE('',*,*,#206,.F.);
#258=ORIENTED_EDGE('',*,*,#207,.T.);
#259=ORIENTED_EDGE('',*,*,#208,.F.);
#260=ORIENTED_EDGE('',*,*,#207,.F.);
#261=ORIENTED_EDGE('',*,*,#209,.F.);
#262=ORIENTED_EDGE('',*,*,#210,.T.);
#263=ORIENTED_EDGE('',*,*,#211,.F.);
#264=ORIENTED_EDGE('',*,*,#210,.F.);
#265=ORIENTED_EDGE('',*,*,#212,.F.);
#266=ORIENTED_EDGE('',*,*,#213,.T.);
#267=ORIENTED_EDGE('',*,*,#214,.F.);
#268=ORIENTED_EDGE('',*,*,#213,.F.);
#269=ORIENTED_EDGE('',*,*,#215,.F.);
#270=ORIENTED_EDGE('',*,*,#216,.T.);
#271=ORIENTED_EDGE('',*,*,#217,.F.);
#272=ORIENTED_EDGE('',*,*,#216,.F.);
#273=ORIENTED_EDGE('',*,*,#218,.F.);
#274=ORIENTED_EDGE('',*,*,#219,.T.);
#275=ORIENTED_EDGE('',*,*,#220,.F.);
#276=ORIENTED_EDGE('',*,*,#219,.F.);
#277=ORIENTED_EDGE('',*,*,#221,.F.);
#278=ORIENTED_EDGE('',*,*,#222,.T.);
#279=ORIENTED_EDGE('',*,*,#223,.F.);
#280=ORIENTED_EDGE('',*,*,#222,.F.);
#281=ORIENTED_EDGE('',*,*,#224,.F.);
#282=ORIENTED_EDGE('',*,*,#225,.T.);
#283=ORIENTED_EDGE('',*,*,#226,.F.);
#284=ORIENTED_EDGE('',*,*,#225,.F.);
#285=ORIENTED_EDGE('',*,*,#227,.T.);
#286=ORIENTED_EDGE('',*,*,#228,.F.);
#287=ORIENTED_EDGE('',*,*,#229,.T.);
#288=ORIENTED_EDGE('',*,*,#230,.T.);
#289=ORIENTED_EDGE('',*,*,#231,.T.);
#290=ORIENTED_EDGE('',*,*,#232,.F.);
#291=ORIENTED_EDGE('',*,*,#233,.T.);
#292=ORIENTED_EDGE('',*,*,#228,.T.);
#293=ORIENTED_EDGE('',*,*,#234,.T.);
#294=ORIENTED_EDGE('',*,*,#235,.F.);
#295=ORIENTED_EDGE('',*,*,#236,.T.);
#296=ORIENTED_EDGE('',*,*,#232,.T.);
#297=ORIENTED_EDGE('',*,*,#237,.T.);
#298=ORIENTED_EDGE('',*,*,#238,.F.);
#299=ORIENTED_EDGE('',*,*,#239,.T.);
#300=ORIENTED_EDGE('',*,*,#235,.T.);
#301=ORIENTED_EDGE('',*,*,#240,.T.);
#302=ORIENTED_EDGE('',*,*,#241,.F.);
#303=ORIENTED_EDGE('',*,*,#242,.T.);
#304=ORIENTED_EDGE('',*,*,#238,.T.);
#305=ORIENTED_EDGE('',*,*,#243,.T.);
#306=ORIENTED_EDGE('',*,*,#230,.F.);
#307=ORIENTED_EDGE('',*,*,#244,.T.);
#308=ORIENTED_EDGE('',*,*,#241,.T.);
#309=ORIENTED_EDGE('',*,*,#244,.F.);
#310=ORIENTED_EDGE('',*,*,#229,.F.);
#311=ORIENTED_EDGE('',*,*,#233,.F.);
#312=ORIENTED_EDGE('',*,*,#236,.F.);
#313=ORIENTED_EDGE('',*,*,#239,.F.);
#314=ORIENTED_EDGE('',*,*,#242,.F.);
#315=ORIENTED_EDGE('',*,*,#197,.T.);
#316=ORIENTED_EDGE('',*,*,#200,.T.);
#317=ORIENTED_EDGE('',*,*,#203,.T.);
#318=ORIENTED_EDGE('',*,*,#206,.T.);
#319=ORIENTED_EDGE('',*,*,#209,.T.);
#320=ORIENTED_EDGE('',*,*,#212,.T.);
#321=ORIENTED_EDGE('',*,*,#215,.T.);
#322=ORIENTED_EDGE('',*,*,#218,.T.);
#323=ORIENTED_EDGE('',*,*,#221,.T.);
#324=ORIENTED_EDGE('',*,*,#224,.T.);
#325=ORIENTED_EDGE('',*,*,#227,.F.);
#326=ORIENTED_EDGE('',*,*,#243,.F.);
#327=ORIENTED_EDGE('',*,*,#240,.F.);
#328=ORIENTED_EDGE('',*,*,#237,.F.);
#329=ORIENTED_EDGE('',*,*,#234,.F.);
#330=ORIENTED_EDGE('',*,*,#231,.F.);
#331=ORIENTED_EDGE('',*,*,#199,.T.);
#332=ORIENTED_EDGE('',*,*,#202,.T.);
#333=ORIENTED_EDGE('',*,*,#205,.T.);
#334=ORIENTED_EDGE('',*,*,#208,.T.);
#335=ORIENTED_EDGE('',*,*,#211,.T.);
#336=ORIENTED_EDGE('',*,*,#214,.T.);
#337=ORIENTED_EDGE('',*,*,#217,.T.);
#338=ORIENTED_EDGE('',*,*,#220,.T.);
#339=ORIENTED_EDGE('',*,*,#223,.T.);
#340=ORIENTED_EDGE('',*,*,#226,.T.);
#341=CYLINDRICAL_SURFACE('',#414,17.5);
#342=CYLINDRICAL_SURFACE('',#417,3.5);
#343=CYLINDRICAL_SURFACE('',#420,3.5);
#344=CYLINDRICAL_SURFACE('',#423,3.5);
#345=CYLINDRICAL_SURFACE('',#426,3.5);
#346=CYLINDRICAL_SURFACE('',#429,3.5);
#347=CYLINDRICAL_SURFACE('',#432,3.5);
#348=CYLINDRICAL_SURFACE('',#435,3.5);
#349=CYLINDRICAL_SURFACE('',#438,3.5);
#350=CYLINDRICAL_SURFACE('',#441,3.5);
#351=CYLINDRICAL_SURFACE('',#445,7.5);
#352=CYLINDRICAL_SURFACE('',#449,7.5);
#353=CYLINDRICAL_SURFACE('',#453,7.49999999999999);
#354=STYLED_ITEM('',(#689),#373);
#355=STYLED_ITEM('',(#689),#374);
#356=STYLED_ITEM('',(#689),#375);
#357=STYLED_ITEM('',(#689),#376);
#358=STYLED_ITEM('',(#689),#377);
#359=STYLED_ITEM('',(#689),#378);
#360=STYLED_ITEM('',(#689),#379);
#361=STYLED_ITEM('',(#689),#380);
#362=STYLED_ITEM('',(#689),#381);
#363=STYLED_ITEM('',(#689),#382);
#364=STYLED_ITEM('',(#689),#383);
#365=STYLED_ITEM('',(#689),#384);
#366=STYLED_ITEM('',(#689),#385);
#367=STYLED_ITEM('',(#689),#386);
#368=STYLED_ITEM('',(#689),#387);
#369=STYLED_ITEM('',(#689),#388);
#370=STYLED_ITEM('',(#689),#389);
#371=STYLED_ITEM('',(#689),#390);
#372=STYLED_ITEM('',(#688),#13);
#373=ADVANCED_FACE('',(#39),#341,.F.);
#374=ADVANCED_FACE('',(#40),#342,.F.);
#375=ADVANCED_FACE('',(#41),#343,.F.);
#376=ADVANCED_FACE('',(#42),#344,.F.);
#377=ADVANCED_FACE('',(#43),#345,.F.);
#378=ADVANCED_FACE('',(#44),#346,.F.);
#379=ADVANCED_FACE('',(#45),#347,.F.);
#380=ADVANCED_FACE('',(#46),#348,.F.);
#381=ADVANCED_FACE('',(#47),#349,.F.);
#382=ADVANCED_FACE('',(#48),#350,.F.);
#383=ADVANCED_FACE('',(#49),#34,.T.);
#384=ADVANCED_FACE('',(#50),#351,.T.);
#385=ADVANCED_FACE('',(#51),#35,.T.);
#386=ADVANCED_FACE('',(#52),#352,.T.);
#387=ADVANCED_FACE('',(#53),#36,.T.);
#388=ADVANCED_FACE('',(#54),#353,.T.);
#389=ADVANCED_FACE('',(#55,#14,#15,#16,#17,#18,#19,#20,#21,#22,#23),#37,
 .F.);
#390=ADVANCED_FACE('',(#56,#24,#25,#26,#27,#28,#29,#30,#31,#32,#33),#38,
 .T.);
#391=CLOSED_SHELL('',(#373,#374,#375,#376,#377,#378,#379,#380,#381,#382,
#383,#384,#385,#386,#387,#388,#389,#390));
#392=DERIVED_UNIT_ELEMENT(#395,1.);
#393=DERIVED_UNIT_ELEMENT(#674,-3.);
#394=DIMENSIONAL_EXPONENTS(0.,1.,0.,0.,0.,0.,0.);
#395=(
CONVERSION_BASED_UNIT('gram',#397)
MASS_UNIT()
NAMED_UNIT(#394)
);
#396=(
MASS_UNIT()
NAMED_UNIT(*)
SI_UNIT(.KILO.,.GRAM.)
);
#397=MASS_MEASURE_WITH_UNIT(MASS_MEASURE(0.001),#396);
#398=DERIVED_UNIT((#392,#393));
#399=MEASURE_REPRESENTATION_ITEM('density measure',
POSITIVE_RATIO_MEASURE(1.),#398);
#400=PROPERTY_DEFINITION_REPRESENTATION(#405,#402);
#401=PROPERTY_DEFINITION_REPRESENTATION(#406,#403);
#402=REPRESENTATION('material name',(#404),#671);
#403=REPRESENTATION('density',(#399),#671);
#404=DESCRIPTIVE_REPRESENTATION_ITEM('Allgemein','Allgemein');
#405=PROPERTY_DEFINITION('material property','material name',#681);
#406=PROPERTY_DEFINITION('material property','density of part',#681);
#407=DATE_TIME_ROLE('creation_date');
#408=APPLIED_DATE_AND_TIME_ASSIGNMENT(#409,#407,(#681));
#409=DATE_AND_TIME(#410,#411);
#410=CALENDAR_DATE(2024,18,9);
#411=LOCAL_TIME(0,0,0.,#412);
#412=COORDINATED_UNIVERSAL_TIME_OFFSET(0,0,.BEHIND.);
#413=AXIS2_PLACEMENT_3D('',#570,#458,#459);
#414=AXIS2_PLACEMENT_3D('',#571,#460,#461);
#415=AXIS2_PLACEMENT_3D('',#573,#462,#463);
#416=AXIS2_PLACEMENT_3D('',#576,#465,#466);
#417=AXIS2_PLACEMENT_3D('',#577,#467,#468);
#418=AXIS2_PLACEMENT_3D('',#579,#469,#470);
#419=AXIS2_PLACEMENT_3D('',#582,#472,#473);
#420=AXIS2_PLACEMENT_3D('',#583,#474,#475);
#421=AXIS2_PLACEMENT_3D('',#585,#476,#477);
#422=AXIS2_PLACEMENT_3D('',#588,#479,#480);
#423=AXIS2_PLACEMENT_3D('',#589,#481,#482);
#424=AXIS2_PLACEMENT_3D('',#591,#483,#484);
#425=AXIS2_PLACEMENT_3D('',#594,#486,#487);
#426=AXIS2_PLACEMENT_3D('',#595,#488,#489);
#427=AXIS2_PLACEMENT_3D('',#597,#490,#491);
#428=AXIS2_PLACEMENT_3D('',#600,#493,#494);
#429=AXIS2_PLACEMENT_3D('',#601,#495,#496);
#430=AXIS2_PLACEMENT_3D('',#603,#497,#498);
#431=AXIS2_PLACEMENT_3D('',#606,#500,#501);
#432=AXIS2_PLACEMENT_3D('',#607,#502,#503);
#433=AXIS2_PLACEMENT_3D('',#609,#504,#505);
#434=AXIS2_PLACEMENT_3D('',#612,#507,#508);
#435=AXIS2_PLACEMENT_3D('',#613,#509,#510);
#436=AXIS2_PLACEMENT_3D('',#615,#511,#512);
#437=AXIS2_PLACEMENT_3D('',#618,#514,#515);
#438=AXIS2_PLACEMENT_3D('',#619,#516,#517);
#439=AXIS2_PLACEMENT_3D('',#621,#518,#519);
#440=AXIS2_PLACEMENT_3D('',#624,#521,#522);
#441=AXIS2_PLACEMENT_3D('',#625,#523,#524);
#442=AXIS2_PLACEMENT_3D('',#627,#525,#526);
#443=AXIS2_PLACEMENT_3D('',#630,#528,#529);
#444=AXIS2_PLACEMENT_3D('',#631,#530,#531);
#445=AXIS2_PLACEMENT_3D('',#640,#536,#537);
#446=AXIS2_PLACEMENT_3D('',#642,#538,#539);
#447=AXIS2_PLACEMENT_3D('',#645,#541,#542);
#448=AXIS2_PLACEMENT_3D('',#646,#543,#544);
#449=AXIS2_PLACEMENT_3D('',#652,#548,#549);
#450=AXIS2_PLACEMENT_3D('',#654,#550,#551);
#451=AXIS2_PLACEMENT_3D('',#657,#553,#554);
#452=AXIS2_PLACEMENT_3D('',#658,#555,#556);
#453=AXIS2_PLACEMENT_3D('',#664,#560,#561);
#454=AXIS2_PLACEMENT_3D('',#665,#562,#563);
#455=AXIS2_PLACEMENT_3D('',#666,#564,#565);
#456=AXIS2_PLACEMENT_3D('',#667,#566,#567);
#457=AXIS2_PLACEMENT_3D('',#668,#568,#569);
#458=DIRECTION('axis',(0.,0.,1.));
#459=DIRECTION('refdir',(1.,0.,0.));
#460=DIRECTION('center_axis',(0.,0.,1.));
#461=DIRECTION('ref_axis',(-1.,0.,0.));
#462=DIRECTION('center_axis',(0.,0.,1.));
#463=DIRECTION('ref_axis',(-1.,0.,0.));
#464=DIRECTION('',(0.,0.,1.));
#465=DIRECTION('center_axis',(0.,0.,-1.));
#466=DIRECTION('ref_axis',(-1.,0.,0.));
#467=DIRECTION('center_axis',(0.,0.,1.));
#468=DIRECTION('ref_axis',(-1.,0.,0.));
#469=DIRECTION('center_axis',(0.,0.,1.));
#470=DIRECTION('ref_axis',(-1.,0.,0.));
#471=DIRECTION('',(0.,0.,1.));
#472=DIRECTION('center_axis',(0.,0.,-1.));
#473=DIRECTION('ref_axis',(-1.,0.,0.));
#474=DIRECTION('center_axis',(0.,0.,1.));
#475=DIRECTION('ref_axis',(-1.,0.,0.));
#476=DIRECTION('center_axis',(0.,0.,1.));
#477=DIRECTION('ref_axis',(-1.,0.,0.));
#478=DIRECTION('',(0.,0.,1.));
#479=DIRECTION('center_axis',(0.,0.,-1.));
#480=DIRECTION('ref_axis',(-1.,0.,0.));
#481=DIRECTION('center_axis',(0.,0.,1.));
#482=DIRECTION('ref_axis',(-1.,0.,0.));
#483=DIRECTION('center_axis',(0.,0.,1.));
#484=DIRECTION('ref_axis',(-1.,0.,0.));
#485=DIRECTION('',(0.,0.,1.));
#486=DIRECTION('center_axis',(0.,0.,-1.));
#487=DIRECTION('ref_axis',(-1.,0.,0.));
#488=DIRECTION('center_axis',(0.,0.,1.));
#489=DIRECTION('ref_axis',(-1.,0.,0.));
#490=DIRECTION('center_axis',(0.,0.,1.));
#491=DIRECTION('ref_axis',(-1.,0.,0.));
#492=DIRECTION('',(0.,0.,1.));
#493=DIRECTION('center_axis',(0.,0.,-1.));
#494=DIRECTION('ref_axis',(-1.,0.,0.));
#495=DIRECTION('center_axis',(0.,0.,1.));
#496=DIRECTION('ref_axis',(-1.,0.,0.));
#497=DIRECTION('center_axis',(0.,0.,1.));
#498=DIRECTION('ref_axis',(-1.,0.,0.));
#499=DIRECTION('',(0.,0.,1.));
#500=DIRECTION('center_axis',(0.,0.,-1.));
#501=DIRECTION('ref_axis',(-1.,0.,0.));
#502=DIRECTION('center_axis',(0.,0.,1.));
#503=DIRECTION('ref_axis',(-1.,0.,0.));
#504=DIRECTION('center_axis',(0.,0.,1.));
#505=DIRECTION('ref_axis',(-1.,0.,0.));
#506=DIRECTION('',(0.,0.,1.));
#507=DIRECTION('center_axis',(0.,0.,-1.));
#508=DIRECTION('ref_axis',(-1.,0.,0.));
#509=DIRECTION('center_axis',(0.,0.,1.));
#510=DIRECTION('ref_axis',(-1.,0.,0.));
#511=DIRECTION('center_axis',(0.,0.,1.));
#512=DIRECTION('ref_axis',(-1.,0.,0.));
#513=DIRECTION('',(0.,0.,1.));
#514=DIRECTION('center_axis',(0.,0.,-1.));
#515=DIRECTION('ref_axis',(-1.,0.,0.));
#516=DIRECTION('center_axis',(0.,0.,1.));
#517=DIRECTION('ref_axis',(-1.,0.,0.));
#518=DIRECTION('center_axis',(0.,0.,1.));
#519=DIRECTION('ref_axis',(-1.,0.,0.));
#520=DIRECTION('',(0.,0.,1.));
#521=DIRECTION('center_axis',(0.,0.,-1.));
#522=DIRECTION('ref_axis',(-1.,0.,0.));
#523=DIRECTION('center_axis',(0.,0.,1.));
#524=DIRECTION('ref_axis',(-1.,0.,0.));
#525=DIRECTION('center_axis',(0.,0.,1.));
#526=DIRECTION('ref_axis',(-1.,0.,0.));
#527=DIRECTION('',(0.,0.,1.));
#528=DIRECTION('center_axis',(0.,0.,-1.));
#529=DIRECTION('ref_axis',(-1.,0.,0.));
#530=DIRECTION('center_axis',(-0.866025403784439,0.5,0.));
#531=DIRECTION('ref_axis',(0.,0.,1.));
#532=DIRECTION('',(0.5,0.866025403784439,0.));
#533=DIRECTION('',(0.,0.,1.));
#534=DIRECTION('',(-0.5,-0.866025403784439,0.));
#535=DIRECTION('',(0.,0.,1.));
#536=DIRECTION('center_axis',(0.,0.,1.));
#537=DIRECTION('ref_axis',(0.866025403784439,0.499999999999999,0.));
#538=DIRECTION('center_axis',(0.,0.,-1.));
#539=DIRECTION('ref_axis',(0.866025403784439,0.499999999999999,0.));
#540=DIRECTION('',(0.,0.,1.));
#541=DIRECTION('center_axis',(0.,0.,1.));
#542=DIRECTION('ref_axis',(0.866025403784439,0.499999999999999,0.));
#543=DIRECTION('center_axis',(0.866025403784439,0.5,0.));
#544=DIRECTION('ref_axis',(0.,0.,-1.));
#545=DIRECTION('',(0.5,-0.866025403784439,0.));
#546=DIRECTION('',(0.,0.,1.));
#547=DIRECTION('',(-0.5,0.866025403784439,0.));
#548=DIRECTION('center_axis',(0.,0.,1.));
#549=DIRECTION('ref_axis',(0.,-1.,0.));
#550=DIRECTION('center_axis',(0.,0.,-1.));
#551=DIRECTION('ref_axis',(0.,-1.,0.));
#552=DIRECTION('',(0.,0.,1.));
#553=DIRECTION('center_axis',(0.,0.,1.));
#554=DIRECTION('ref_axis',(0.,-1.,0.));
#555=DIRECTION('center_axis',(0.,-1.,0.));
#556=DIRECTION('ref_axis',(0.,0.,-1.));
#557=DIRECTION('',(-1.,0.,0.));
#558=DIRECTION('',(0.,0.,1.));
#559=DIRECTION('',(1.,0.,0.));
#560=DIRECTION('center_axis',(0.,0.,1.));
#561=DIRECTION('ref_axis',(-0.866025403784438,0.5,0.));
#562=DIRECTION('center_axis',(0.,0.,-1.));
#563=DIRECTION('ref_axis',(-0.866025403784438,0.5,0.));
#564=DIRECTION('center_axis',(0.,0.,1.));
#565=DIRECTION('ref_axis',(-0.866025403784438,0.5,0.));
#566=DIRECTION('center_axis',(0.,0.,1.));
#567=DIRECTION('ref_axis',(1.,0.,0.));
#568=DIRECTION('center_axis',(0.,0.,1.));
#569=DIRECTION('ref_axis',(1.,0.,0.));
#570=CARTESIAN_POINT('',(0.,0.,0.));
#571=CARTESIAN_POINT('Origin',(0.,0.,0.));
#572=CARTESIAN_POINT('',(17.5,2.14306111918916E-15,0.));
#573=CARTESIAN_POINT('Origin',(0.,0.,0.));
#574=CARTESIAN_POINT('',(17.5,2.14306111918916E-15,3.));
#575=CARTESIAN_POINT('',(17.5,2.14313189850787E-15,0.));
#576=CARTESIAN_POINT('Origin',(0.,0.,3.));
#577=CARTESIAN_POINT('Origin',(-19.5,11.25,0.));
#578=CARTESIAN_POINT('',(-16.,11.25,0.));
#579=CARTESIAN_POINT('Origin',(-19.5,11.25,0.));
#580=CARTESIAN_POINT('',(-16.,11.25,3.));
#581=CARTESIAN_POINT('',(-16.,11.25,0.));
#582=CARTESIAN_POINT('Origin',(-19.5,11.25,3.));
#583=CARTESIAN_POINT('Origin',(19.5,11.25,0.));
#584=CARTESIAN_POINT('',(23.,11.25,0.));
#585=CARTESIAN_POINT('Origin',(19.5,11.25,0.));
#586=CARTESIAN_POINT('',(23.,11.25,3.));
#587=CARTESIAN_POINT('',(23.,11.25,0.));
#588=CARTESIAN_POINT('Origin',(19.5,11.25,3.));
#589=CARTESIAN_POINT('Origin',(0.,-22.5,0.));
#590=CARTESIAN_POINT('',(3.5,-22.5,0.));
#591=CARTESIAN_POINT('Origin',(0.,-22.5,0.));
#592=CARTESIAN_POINT('',(3.5,-22.5,3.));
#593=CARTESIAN_POINT('',(3.5,-22.5,0.));
#594=CARTESIAN_POINT('Origin',(0.,-22.5,3.));
#595=CARTESIAN_POINT('Origin',(32.9,-19.,0.));
#596=CARTESIAN_POINT('',(36.4,-19.,0.));
#597=CARTESIAN_POINT('Origin',(32.9,-19.,0.));
#598=CARTESIAN_POINT('',(36.4,-19.,3.));
#599=CARTESIAN_POINT('',(36.4,-19.,0.));
#600=CARTESIAN_POINT('Origin',(32.9,-19.,3.));
#601=CARTESIAN_POINT('Origin',(-32.9,-19.,0.));
#602=CARTESIAN_POINT('',(-29.4,-19.,0.));
#603=CARTESIAN_POINT('Origin',(-32.9,-19.,0.));
#604=CARTESIAN_POINT('',(-29.4,-19.,3.));
#605=CARTESIAN_POINT('',(-29.4,-19.,0.));
#606=CARTESIAN_POINT('Origin',(-32.9,-19.,3.));
#607=CARTESIAN_POINT('Origin',(0.,38.,0.));
#608=CARTESIAN_POINT('',(3.5,38.,0.));
#609=CARTESIAN_POINT('Origin',(0.,38.,0.));
#610=CARTESIAN_POINT('',(3.5,38.,3.));
#611=CARTESIAN_POINT('',(3.5,38.,0.));
#612=CARTESIAN_POINT('Origin',(0.,38.,3.));
#613=CARTESIAN_POINT('Origin',(42.5,-24.5621593216773,0.));
#614=CARTESIAN_POINT('',(46.,-24.5621593216773,0.));
#615=CARTESIAN_POINT('Origin',(42.5,-24.5621593216773,0.));
#616=CARTESIAN_POINT('',(46.,-24.5621593216773,3.));
#617=CARTESIAN_POINT('',(46.,-24.5621593216773,0.));
#618=CARTESIAN_POINT('Origin',(42.5,-24.5621593216773,3.));
#619=CARTESIAN_POINT('Origin',(0.,49.05,0.));
#620=CARTESIAN_POINT('',(3.5,49.05,0.));
#621=CARTESIAN_POINT('Origin',(0.,49.05,0.));
#622=CARTESIAN_POINT('',(3.5,49.05,3.));
#623=CARTESIAN_POINT('',(3.5,49.05,0.));
#624=CARTESIAN_POINT('Origin',(0.,49.05,3.));
#625=CARTESIAN_POINT('Origin',(-42.5,-24.5621593216773,0.));
#626=CARTESIAN_POINT('',(-39.,-24.5621593216773,0.));
#627=CARTESIAN_POINT('Origin',(-42.5,-24.5621593216773,0.));
#628=CARTESIAN_POINT('',(-39.,-24.5621593216773,3.));
#629=CARTESIAN_POINT('',(-39.,-24.5621593216773,0.));
#630=CARTESIAN_POINT('Origin',(-42.5,-24.5621593216773,3.));
#631=CARTESIAN_POINT('Origin',(-48.9951905283833,-20.8121593216773,0.));
#632=CARTESIAN_POINT('',(-48.9951905283833,-20.8121593216773,3.));
#633=CARTESIAN_POINT('',(-6.49519052838329,52.8,3.));
#634=CARTESIAN_POINT('',(-6.49519052838329,52.8,3.));
#635=CARTESIAN_POINT('',(-6.49519052838329,52.8,0.));
#636=CARTESIAN_POINT('',(-6.49519052838329,52.8,0.));
#637=CARTESIAN_POINT('',(-48.9951905283833,-20.8121593216773,0.));
#638=CARTESIAN_POINT('',(-6.49519052838329,52.8,0.));
#639=CARTESIAN_POINT('',(-48.9951905283833,-20.8121593216773,0.));
#640=CARTESIAN_POINT('Origin',(0.,49.05,0.));
#641=CARTESIAN_POINT('',(6.49519052838328,52.8,3.));
#642=CARTESIAN_POINT('Origin',(0.,49.05,3.));
#643=CARTESIAN_POINT('',(6.49519052838328,52.8,0.));
#644=CARTESIAN_POINT('',(6.49519052838328,52.8,0.));
#645=CARTESIAN_POINT('Origin',(0.,49.05,0.));
#646=CARTESIAN_POINT('Origin',(6.49519052838328,52.8,0.));
#647=CARTESIAN_POINT('',(48.9951905283833,-20.8121593216773,3.));
#648=CARTESIAN_POINT('',(48.9951905283833,-20.8121593216773,3.));
#649=CARTESIAN_POINT('',(48.9951905283833,-20.8121593216773,0.));
#650=CARTESIAN_POINT('',(48.9951905283833,-20.8121593216773,0.));
#651=CARTESIAN_POINT('',(48.9951905283833,-20.8121593216773,0.));
#652=CARTESIAN_POINT('Origin',(42.5,-24.5621593216773,0.));
#653=CARTESIAN_POINT('',(42.5,-32.0621593216773,3.));
#654=CARTESIAN_POINT('Origin',(42.5,-24.5621593216773,3.));
#655=CARTESIAN_POINT('',(42.5,-32.0621593216773,0.));
#656=CARTESIAN_POINT('',(42.5,-32.0621593216773,0.));
#657=CARTESIAN_POINT('Origin',(42.5,-24.5621593216773,0.));
#658=CARTESIAN_POINT('Origin',(42.5,-32.0621593216773,0.));
#659=CARTESIAN_POINT('',(-42.5,-32.0621593216773,3.));
#660=CARTESIAN_POINT('',(-42.5,-32.0621593216773,3.));
#661=CARTESIAN_POINT('',(-42.5,-32.0621593216773,0.));
#662=CARTESIAN_POINT('',(-42.5,-32.0621593216773,0.));
#663=CARTESIAN_POINT('',(-42.5,-32.0621593216773,0.));
#664=CARTESIAN_POINT('Origin',(-42.5,-24.5621593216773,0.));
#665=CARTESIAN_POINT('Origin',(-42.5,-24.5621593216773,3.));
#666=CARTESIAN_POINT('Origin',(-42.5,-24.5621593216773,0.));
#667=CARTESIAN_POINT('Origin',(-2.41506028893456E-14,-0.0247728811181946,
0.));
#668=CARTESIAN_POINT('Origin',(-2.44249065417534E-14,-0.0247728811181958,
3.));
#669=UNCERTAINTY_MEASURE_WITH_UNIT(LENGTH_MEASURE(0.01),#673,
'DISTANCE_ACCURACY_VALUE',
'Maximum model space distance between geometric entities at asserted c
onnectivities');
#670=UNCERTAINTY_MEASURE_WITH_UNIT(LENGTH_MEASURE(0.01),#673,
'DISTANCE_ACCURACY_VALUE',
'Maximum model space distance between geometric entities at asserted c
onnectivities');
#671=(
GEOMETRIC_REPRESENTATION_CONTEXT(3)
GLOBAL_UNCERTAINTY_ASSIGNED_CONTEXT((#669))
GLOBAL_UNIT_ASSIGNED_CONTEXT((#673,#675,#676))
REPRESENTATION_CONTEXT('','3D')
);
#672=(
GEOMETRIC_REPRESENTATION_CONTEXT(3)
GLOBAL_UNCERTAINTY_ASSIGNED_CONTEXT((#670))
GLOBAL_UNIT_ASSIGNED_CONTEXT((#673,#675,#676))
REPRESENTATION_CONTEXT('','3D')
);
#673=(
LENGTH_UNIT()
NAMED_UNIT(*)
SI_UNIT(.MILLI.,.METRE.)
);
#674=(
LENGTH_UNIT()
NAMED_UNIT(*)
SI_UNIT(.CENTI.,.METRE.)
);
#675=(
NAMED_UNIT(*)
PLANE_ANGLE_UNIT()
SI_UNIT($,.RADIAN.)
);
#676=(
NAMED_UNIT(*)
SI_UNIT($,.STERADIAN.)
SOLID_ANGLE_UNIT()
);
#677=SHAPE_DEFINITION_REPRESENTATION(#678,#679);
#678=PRODUCT_DEFINITION_SHAPE('',$,#681);
#679=SHAPE_REPRESENTATION('',(#413),#671);
#680=PRODUCT_DEFINITION_CONTEXT('part definition',#685,'design');
#681=PRODUCT_DEFINITION('901.139','901.139',#682,#680);
#682=PRODUCT_DEFINITION_FORMATION('',$,#687);
#683=PRODUCT_RELATED_PRODUCT_CATEGORY('901.139','901.139',(#687));
#684=APPLICATION_PROTOCOL_DEFINITION('international standard',
'automotive_design',2009,#685);
#685=APPLICATION_CONTEXT(
'Core Data for Automotive Mechanical Design Process');
#686=PRODUCT_CONTEXT('part definition',#685,'mechanical');
#687=PRODUCT('901.139','901.139',$,(#686));
#688=PRESENTATION_STYLE_ASSIGNMENT((#690));
#689=PRESENTATION_STYLE_ASSIGNMENT((#691));
#690=SURFACE_STYLE_USAGE(.BOTH.,#696);
#691=SURFACE_STYLE_USAGE(.BOTH.,#697);
#692=SURFACE_STYLE_RENDERING_WITH_PROPERTIES($,#704,(#694));
#693=SURFACE_STYLE_RENDERING_WITH_PROPERTIES($,#705,(#695));
#694=SURFACE_STYLE_TRANSPARENT(0.);
#695=SURFACE_STYLE_TRANSPARENT(0.);
#696=SURFACE_SIDE_STYLE('',(#698,#692));
#697=SURFACE_SIDE_STYLE('',(#699,#693));
#698=SURFACE_STYLE_FILL_AREA(#700);
#699=SURFACE_STYLE_FILL_AREA(#701);
#700=FILL_AREA_STYLE('',(#702));
#701=FILL_AREA_STYLE('',(#703));
#702=FILL_AREA_STYLE_COLOUR('',#704);
#703=FILL_AREA_STYLE_COLOUR('',#705);
#704=COLOUR_RGB('',0.749019607843137,0.749019607843137,0.749019607843137);
#705=COLOUR_RGB('',0.63921568627451,0.63921568627451,0.662745098039216);
ENDSEC;
END-ISO-10303-21;
