ISO-10303-21;
HEADER;
/* Generated by software containing ST-Developer
 * from STEP Tools, Inc. (www.steptools.com) 
 */
/* OPTION: strings as raw bytes, not using required /X/ escapes */

FILE_DESCRIPTION(
/* description */ ('Unknown'),
/* implementation_level */ '2;1');

FILE_NAME(
/* name */ '040008540_Halteblech_Ansaugverteiler_13_12_2023',
/* time_stamp */ '2023-12-13T14:05:13+01:00',
/* author */ ('Unknown'),
/* organization */ ('Unknown'),
/* preprocessor_version */ 'ST-DEVELOPER v18.104',
/* originating_system */ 'Solid Edge',
/* authorisation */ 'Unknown');

FILE_SCHEMA (('AUTOMOTIVE_DESIGN {1 0 10303 214 3 1 1}'));
ENDSEC;

DATA;
#10=PROPERTY_DEFINITION_REPRESENTATION(#14,#12);
#11=PROPERTY_DEFINITION_REPRESENTATION(#15,#13);
#12=REPRESENTATION('',(#16),#697);
#13=REPRESENTATION('',(#17),#697);
#14=PROPERTY_DEFINITION('pmi validation property','',#702);
#15=PROPERTY_DEFINITION('pmi validation property','',#702);
#16=VALUE_REPRESENTATION_ITEM('number of annotations',COUNT_MEASURE(0.));
#17=VALUE_REPRESENTATION_ITEM('number of views',COUNT_MEASURE(0.));
#18=SHAPE_REPRESENTATION_RELATIONSHIP('','',#429,#19);
#19=ADVANCED_BREP_SHAPE_REPRESENTATION('',(#427),#697);
#20=CYLINDRICAL_SURFACE('',#454,3.);
#21=CYLINDRICAL_SURFACE('',#455,1.);
#22=CYLINDRICAL_SURFACE('',#456,32.);
#23=CYLINDRICAL_SURFACE('',#457,10.);
#24=CYLINDRICAL_SURFACE('',#458,10.);
#25=CYLINDRICAL_SURFACE('',#465,4.25);
#26=CYLINDRICAL_SURFACE('',#466,4.25);
#27=CYLINDRICAL_SURFACE('',#467,4.25);
#28=CIRCLE('',#432,3.);
#29=CIRCLE('',#433,1.);
#30=CIRCLE('',#435,1.);
#31=CIRCLE('',#436,3.);
#32=CIRCLE('',#438,4.25);
#33=CIRCLE('',#439,4.25);
#34=CIRCLE('',#440,4.25);
#35=CIRCLE('',#441,10.);
#36=CIRCLE('',#442,10.);
#37=CIRCLE('',#445,4.25);
#38=CIRCLE('',#446,4.25);
#39=CIRCLE('',#447,4.25);
#40=CIRCLE('',#448,10.);
#41=CIRCLE('',#449,10.);
#42=CIRCLE('',#451,32.);
#43=CIRCLE('',#453,32.);
#44=ORIENTED_EDGE('',*,*,#152,.F.);
#45=ORIENTED_EDGE('',*,*,#153,.T.);
#46=ORIENTED_EDGE('',*,*,#154,.T.);
#47=ORIENTED_EDGE('',*,*,#155,.T.);
#48=ORIENTED_EDGE('',*,*,#156,.F.);
#49=ORIENTED_EDGE('',*,*,#157,.T.);
#50=ORIENTED_EDGE('',*,*,#158,.T.);
#51=ORIENTED_EDGE('',*,*,#159,.F.);
#52=ORIENTED_EDGE('',*,*,#160,.T.);
#53=ORIENTED_EDGE('',*,*,#161,.T.);
#54=ORIENTED_EDGE('',*,*,#162,.F.);
#55=ORIENTED_EDGE('',*,*,#163,.F.);
#56=ORIENTED_EDGE('',*,*,#164,.T.);
#57=ORIENTED_EDGE('',*,*,#165,.T.);
#58=ORIENTED_EDGE('',*,*,#166,.F.);
#59=ORIENTED_EDGE('',*,*,#167,.T.);
#60=ORIENTED_EDGE('',*,*,#168,.T.);
#61=ORIENTED_EDGE('',*,*,#169,.T.);
#62=ORIENTED_EDGE('',*,*,#170,.T.);
#63=ORIENTED_EDGE('',*,*,#154,.F.);
#64=ORIENTED_EDGE('',*,*,#171,.T.);
#65=ORIENTED_EDGE('',*,*,#172,.F.);
#66=ORIENTED_EDGE('',*,*,#173,.T.);
#67=ORIENTED_EDGE('',*,*,#160,.F.);
#68=ORIENTED_EDGE('',*,*,#174,.T.);
#69=ORIENTED_EDGE('',*,*,#172,.T.);
#70=ORIENTED_EDGE('',*,*,#175,.T.);
#71=ORIENTED_EDGE('',*,*,#176,.F.);
#72=ORIENTED_EDGE('',*,*,#177,.T.);
#73=ORIENTED_EDGE('',*,*,#178,.F.);
#74=ORIENTED_EDGE('',*,*,#179,.F.);
#75=ORIENTED_EDGE('',*,*,#180,.F.);
#76=ORIENTED_EDGE('',*,*,#176,.T.);
#77=ORIENTED_EDGE('',*,*,#181,.T.);
#78=ORIENTED_EDGE('',*,*,#152,.T.);
#79=ORIENTED_EDGE('',*,*,#182,.F.);
#80=ORIENTED_EDGE('',*,*,#162,.T.);
#81=ORIENTED_EDGE('',*,*,#183,.T.);
#82=ORIENTED_EDGE('',*,*,#184,.F.);
#83=ORIENTED_EDGE('',*,*,#185,.F.);
#84=ORIENTED_EDGE('',*,*,#186,.F.);
#85=ORIENTED_EDGE('',*,*,#187,.F.);
#86=ORIENTED_EDGE('',*,*,#188,.F.);
#87=ORIENTED_EDGE('',*,*,#189,.F.);
#88=ORIENTED_EDGE('',*,*,#166,.T.);
#89=ORIENTED_EDGE('',*,*,#190,.T.);
#90=ORIENTED_EDGE('',*,*,#156,.T.);
#91=ORIENTED_EDGE('',*,*,#191,.T.);
#92=ORIENTED_EDGE('',*,*,#192,.F.);
#93=ORIENTED_EDGE('',*,*,#193,.F.);
#94=ORIENTED_EDGE('',*,*,#194,.F.);
#95=ORIENTED_EDGE('',*,*,#195,.F.);
#96=ORIENTED_EDGE('',*,*,#196,.F.);
#97=ORIENTED_EDGE('',*,*,#197,.F.);
#98=ORIENTED_EDGE('',*,*,#198,.T.);
#99=ORIENTED_EDGE('',*,*,#164,.F.);
#100=ORIENTED_EDGE('',*,*,#199,.F.);
#101=ORIENTED_EDGE('',*,*,#158,.F.);
#102=ORIENTED_EDGE('',*,*,#155,.F.);
#103=ORIENTED_EDGE('',*,*,#174,.F.);
#104=ORIENTED_EDGE('',*,*,#167,.F.);
#105=ORIENTED_EDGE('',*,*,#191,.F.);
#106=ORIENTED_EDGE('',*,*,#159,.T.);
#107=ORIENTED_EDGE('',*,*,#199,.T.);
#108=ORIENTED_EDGE('',*,*,#163,.T.);
#109=ORIENTED_EDGE('',*,*,#182,.T.);
#110=ORIENTED_EDGE('',*,*,#157,.F.);
#111=ORIENTED_EDGE('',*,*,#190,.F.);
#112=ORIENTED_EDGE('',*,*,#165,.F.);
#113=ORIENTED_EDGE('',*,*,#198,.F.);
#114=ORIENTED_EDGE('',*,*,#171,.F.);
#115=ORIENTED_EDGE('',*,*,#153,.F.);
#116=ORIENTED_EDGE('',*,*,#181,.F.);
#117=ORIENTED_EDGE('',*,*,#175,.F.);
#118=ORIENTED_EDGE('',*,*,#173,.F.);
#119=ORIENTED_EDGE('',*,*,#177,.F.);
#120=ORIENTED_EDGE('',*,*,#183,.F.);
#121=ORIENTED_EDGE('',*,*,#161,.F.);
#122=ORIENTED_EDGE('',*,*,#184,.T.);
#123=ORIENTED_EDGE('',*,*,#200,.T.);
#124=ORIENTED_EDGE('',*,*,#193,.T.);
#125=ORIENTED_EDGE('',*,*,#201,.F.);
#126=ORIENTED_EDGE('',*,*,#185,.T.);
#127=ORIENTED_EDGE('',*,*,#201,.T.);
#128=ORIENTED_EDGE('',*,*,#192,.T.);
#129=ORIENTED_EDGE('',*,*,#202,.F.);
#130=ORIENTED_EDGE('',*,*,#186,.T.);
#131=ORIENTED_EDGE('',*,*,#202,.T.);
#132=ORIENTED_EDGE('',*,*,#197,.T.);
#133=ORIENTED_EDGE('',*,*,#203,.F.);
#134=ORIENTED_EDGE('',*,*,#187,.T.);
#135=ORIENTED_EDGE('',*,*,#203,.T.);
#136=ORIENTED_EDGE('',*,*,#196,.T.);
#137=ORIENTED_EDGE('',*,*,#204,.F.);
#138=ORIENTED_EDGE('',*,*,#188,.T.);
#139=ORIENTED_EDGE('',*,*,#204,.T.);
#140=ORIENTED_EDGE('',*,*,#195,.T.);
#141=ORIENTED_EDGE('',*,*,#205,.F.);
#142=ORIENTED_EDGE('',*,*,#189,.T.);
#143=ORIENTED_EDGE('',*,*,#205,.T.);
#144=ORIENTED_EDGE('',*,*,#194,.T.);
#145=ORIENTED_EDGE('',*,*,#200,.F.);
#146=ORIENTED_EDGE('',*,*,#170,.F.);
#147=ORIENTED_EDGE('',*,*,#180,.T.);
#148=ORIENTED_EDGE('',*,*,#169,.F.);
#149=ORIENTED_EDGE('',*,*,#179,.T.);
#150=ORIENTED_EDGE('',*,*,#168,.F.);
#151=ORIENTED_EDGE('',*,*,#178,.T.);
#152=EDGE_CURVE('',#206,#207,#244,.T.);
#153=EDGE_CURVE('',#206,#208,#245,.F.);
#154=EDGE_CURVE('',#208,#209,#246,.T.);
#155=EDGE_CURVE('',#209,#210,#28,.T.);
#156=EDGE_CURVE('',#211,#210,#247,.T.);
#157=EDGE_CURVE('',#211,#212,#248,.T.);
#158=EDGE_CURVE('',#212,#213,#249,.T.);
#159=EDGE_CURVE('',#207,#213,#29,.T.);
#160=EDGE_CURVE('',#214,#215,#250,.T.);
#161=EDGE_CURVE('',#215,#216,#251,.T.);
#162=EDGE_CURVE('',#217,#216,#252,.T.);
#163=EDGE_CURVE('',#218,#217,#30,.F.);
#164=EDGE_CURVE('',#218,#219,#253,.T.);
#165=EDGE_CURVE('',#219,#220,#254,.F.);
#166=EDGE_CURVE('',#221,#220,#255,.T.);
#167=EDGE_CURVE('',#221,#214,#31,.T.);
#168=EDGE_CURVE('',#222,#222,#32,.T.);
#169=EDGE_CURVE('',#223,#223,#33,.T.);
#170=EDGE_CURVE('',#224,#224,#34,.T.);
#171=EDGE_CURVE('',#208,#225,#35,.F.);
#172=EDGE_CURVE('',#226,#225,#256,.T.);
#173=EDGE_CURVE('',#226,#215,#36,.F.);
#174=EDGE_CURVE('',#214,#209,#257,.T.);
#175=EDGE_CURVE('',#225,#227,#258,.T.);
#176=EDGE_CURVE('',#228,#227,#259,.T.);
#177=EDGE_CURVE('',#228,#226,#260,.F.);
#178=EDGE_CURVE('',#229,#229,#37,.T.);
#179=EDGE_CURVE('',#230,#230,#38,.T.);
#180=EDGE_CURVE('',#231,#231,#39,.T.);
#181=EDGE_CURVE('',#227,#206,#40,.T.);
#182=EDGE_CURVE('',#217,#207,#261,.T.);
#183=EDGE_CURVE('',#216,#228,#41,.T.);
#184=EDGE_CURVE('',#232,#233,#262,.T.);
#185=EDGE_CURVE('',#234,#232,#263,.T.);
#186=EDGE_CURVE('',#235,#234,#264,.T.);
#187=EDGE_CURVE('',#236,#235,#265,.T.);
#188=EDGE_CURVE('',#237,#236,#266,.T.);
#189=EDGE_CURVE('',#233,#237,#267,.T.);
#190=EDGE_CURVE('',#220,#211,#42,.T.);
#191=EDGE_CURVE('',#210,#221,#268,.T.);
#192=EDGE_CURVE('',#238,#239,#269,.T.);
#193=EDGE_CURVE('',#240,#238,#270,.T.);
#194=EDGE_CURVE('',#241,#240,#271,.T.);
#195=EDGE_CURVE('',#242,#241,#272,.T.);
#196=EDGE_CURVE('',#243,#242,#273,.T.);
#197=EDGE_CURVE('',#239,#243,#274,.T.);
#198=EDGE_CURVE('',#212,#219,#43,.F.);
#199=EDGE_CURVE('',#213,#218,#275,.T.);
#200=EDGE_CURVE('',#233,#240,#276,.T.);
#201=EDGE_CURVE('',#232,#238,#277,.T.);
#202=EDGE_CURVE('',#234,#239,#278,.T.);
#203=EDGE_CURVE('',#235,#243,#279,.T.);
#204=EDGE_CURVE('',#236,#242,#280,.T.);
#205=EDGE_CURVE('',#237,#241,#281,.T.);
#206=VERTEX_POINT('',#585);
#207=VERTEX_POINT('',#586);
#208=VERTEX_POINT('',#588);
#209=VERTEX_POINT('',#590);
#210=VERTEX_POINT('',#592);
#211=VERTEX_POINT('',#594);
#212=VERTEX_POINT('',#596);
#213=VERTEX_POINT('',#598);
#214=VERTEX_POINT('',#602);
#215=VERTEX_POINT('',#603);
#216=VERTEX_POINT('',#605);
#217=VERTEX_POINT('',#607);
#218=VERTEX_POINT('',#609);
#219=VERTEX_POINT('',#611);
#220=VERTEX_POINT('',#613);
#221=VERTEX_POINT('',#615);
#222=VERTEX_POINT('',#619);
#223=VERTEX_POINT('',#621);
#224=VERTEX_POINT('',#623);
#225=VERTEX_POINT('',#625);
#226=VERTEX_POINT('',#627);
#227=VERTEX_POINT('',#632);
#228=VERTEX_POINT('',#634);
#229=VERTEX_POINT('',#638);
#230=VERTEX_POINT('',#640);
#231=VERTEX_POINT('',#642);
#232=VERTEX_POINT('',#648);
#233=VERTEX_POINT('',#649);
#234=VERTEX_POINT('',#651);
#235=VERTEX_POINT('',#653);
#236=VERTEX_POINT('',#655);
#237=VERTEX_POINT('',#657);
#238=VERTEX_POINT('',#663);
#239=VERTEX_POINT('',#664);
#240=VERTEX_POINT('',#666);
#241=VERTEX_POINT('',#668);
#242=VERTEX_POINT('',#670);
#243=VERTEX_POINT('',#672);
#244=LINE('',#584,#282);
#245=LINE('',#587,#283);
#246=LINE('',#589,#284);
#247=LINE('',#593,#285);
#248=LINE('',#595,#286);
#249=LINE('',#597,#287);
#250=LINE('',#601,#288);
#251=LINE('',#604,#289);
#252=LINE('',#606,#290);
#253=LINE('',#610,#291);
#254=LINE('',#612,#292);
#255=LINE('',#614,#293);
#256=LINE('',#626,#294);
#257=LINE('',#629,#295);
#258=LINE('',#631,#296);
#259=LINE('',#633,#297);
#260=LINE('',#635,#298);
#261=LINE('',#644,#299);
#262=LINE('',#647,#300);
#263=LINE('',#650,#301);
#264=LINE('',#652,#302);
#265=LINE('',#654,#303);
#266=LINE('',#656,#304);
#267=LINE('',#658,#305);
#268=LINE('',#660,#306);
#269=LINE('',#662,#307);
#270=LINE('',#665,#308);
#271=LINE('',#667,#309);
#272=LINE('',#669,#310);
#273=LINE('',#671,#311);
#274=LINE('',#673,#312);
#275=LINE('',#675,#313);
#276=LINE('',#682,#314);
#277=LINE('',#683,#315);
#278=LINE('',#685,#316);
#279=LINE('',#687,#317);
#280=LINE('',#689,#318);
#281=LINE('',#691,#319);
#282=VECTOR('',#472,1000.);
#283=VECTOR('',#473,1000.);
#284=VECTOR('',#474,1000.);
#285=VECTOR('',#477,1000.);
#286=VECTOR('',#478,1000.);
#287=VECTOR('',#479,1000.);
#288=VECTOR('',#484,1000.);
#289=VECTOR('',#485,1000.);
#290=VECTOR('',#486,1000.);
#291=VECTOR('',#489,1000.);
#292=VECTOR('',#490,1000.);
#293=VECTOR('',#491,1000.);
#294=VECTOR('',#504,1000.);
#295=VECTOR('',#507,1000.);
#296=VECTOR('',#510,1000.);
#297=VECTOR('',#511,1000.);
#298=VECTOR('',#512,1000.);
#299=VECTOR('',#523,1000.);
#300=VECTOR('',#528,1000.);
#301=VECTOR('',#529,1000.);
#302=VECTOR('',#530,1000.);
#303=VECTOR('',#531,1000.);
#304=VECTOR('',#532,1000.);
#305=VECTOR('',#533,1000.);
#306=VECTOR('',#536,1000.);
#307=VECTOR('',#539,1000.);
#308=VECTOR('',#540,1000.);
#309=VECTOR('',#541,1000.);
#310=VECTOR('',#542,1000.);
#311=VECTOR('',#543,1000.);
#312=VECTOR('',#544,1000.);
#313=VECTOR('',#547,1000.);
#314=VECTOR('',#560,1000.);
#315=VECTOR('',#561,1000.);
#316=VECTOR('',#564,1000.);
#317=VECTOR('',#567,1000.);
#318=VECTOR('',#570,1000.);
#319=VECTOR('',#573,1000.);
#320=EDGE_LOOP('',(#44,#45,#46,#47,#48,#49,#50,#51));
#321=EDGE_LOOP('',(#52,#53,#54,#55,#56,#57,#58,#59));
#322=EDGE_LOOP('',(#60));
#323=EDGE_LOOP('',(#61));
#324=EDGE_LOOP('',(#62));
#325=EDGE_LOOP('',(#63,#64,#65,#66,#67,#68));
#326=EDGE_LOOP('',(#69,#70,#71,#72));
#327=EDGE_LOOP('',(#73));
#328=EDGE_LOOP('',(#74));
#329=EDGE_LOOP('',(#75));
#330=EDGE_LOOP('',(#76,#77,#78,#79,#80,#81));
#331=EDGE_LOOP('',(#82,#83,#84,#85,#86,#87));
#332=EDGE_LOOP('',(#88,#89,#90,#91));
#333=EDGE_LOOP('',(#92,#93,#94,#95,#96,#97));
#334=EDGE_LOOP('',(#98,#99,#100,#101));
#335=EDGE_LOOP('',(#102,#103,#104,#105));
#336=EDGE_LOOP('',(#106,#107,#108,#109));
#337=EDGE_LOOP('',(#110,#111,#112,#113));
#338=EDGE_LOOP('',(#114,#115,#116,#117));
#339=EDGE_LOOP('',(#118,#119,#120,#121));
#340=EDGE_LOOP('',(#122,#123,#124,#125));
#341=EDGE_LOOP('',(#126,#127,#128,#129));
#342=EDGE_LOOP('',(#130,#131,#132,#133));
#343=EDGE_LOOP('',(#134,#135,#136,#137));
#344=EDGE_LOOP('',(#138,#139,#140,#141));
#345=EDGE_LOOP('',(#142,#143,#144,#145));
#346=EDGE_LOOP('',(#146));
#347=EDGE_LOOP('',(#147));
#348=EDGE_LOOP('',(#148));
#349=EDGE_LOOP('',(#149));
#350=EDGE_LOOP('',(#150));
#351=EDGE_LOOP('',(#151));
#352=FACE_BOUND('',#320,.T.);
#353=FACE_BOUND('',#321,.T.);
#354=FACE_BOUND('',#322,.T.);
#355=FACE_BOUND('',#323,.T.);
#356=FACE_BOUND('',#324,.T.);
#357=FACE_BOUND('',#325,.T.);
#358=FACE_BOUND('',#326,.T.);
#359=FACE_BOUND('',#327,.T.);
#360=FACE_BOUND('',#328,.T.);
#361=FACE_BOUND('',#329,.T.);
#362=FACE_BOUND('',#330,.T.);
#363=FACE_BOUND('',#331,.T.);
#364=FACE_BOUND('',#332,.T.);
#365=FACE_BOUND('',#333,.T.);
#366=FACE_BOUND('',#334,.T.);
#367=FACE_BOUND('',#335,.T.);
#368=FACE_BOUND('',#336,.T.);
#369=FACE_BOUND('',#337,.T.);
#370=FACE_BOUND('',#338,.T.);
#371=FACE_BOUND('',#339,.T.);
#372=FACE_BOUND('',#340,.T.);
#373=FACE_BOUND('',#341,.T.);
#374=FACE_BOUND('',#342,.T.);
#375=FACE_BOUND('',#343,.T.);
#376=FACE_BOUND('',#344,.T.);
#377=FACE_BOUND('',#345,.T.);
#378=FACE_BOUND('',#346,.T.);
#379=FACE_BOUND('',#347,.T.);
#380=FACE_BOUND('',#348,.T.);
#381=FACE_BOUND('',#349,.T.);
#382=FACE_BOUND('',#350,.T.);
#383=FACE_BOUND('',#351,.T.);
#384=PLANE('',#431);
#385=PLANE('',#434);
#386=PLANE('',#437);
#387=PLANE('',#443);
#388=PLANE('',#444);
#389=PLANE('',#450);
#390=PLANE('',#452);
#391=PLANE('',#459);
#392=PLANE('',#460);
#393=PLANE('',#461);
#394=PLANE('',#462);
#395=PLANE('',#463);
#396=PLANE('',#464);
#397=ADVANCED_FACE('',(#352),#384,.T.);
#398=ADVANCED_FACE('',(#353),#385,.T.);
#399=ADVANCED_FACE('',(#354,#355,#356,#357),#386,.F.);
#400=ADVANCED_FACE('',(#358),#387,.T.);
#401=ADVANCED_FACE('',(#359,#360,#361,#362),#388,.T.);
#402=ADVANCED_FACE('',(#363,#364),#389,.T.);
#403=ADVANCED_FACE('',(#365,#366),#390,.F.);
#404=ADVANCED_FACE('',(#367),#20,.T.);
#405=ADVANCED_FACE('',(#368),#21,.F.);
#406=ADVANCED_FACE('',(#369),#22,.T.);
#407=ADVANCED_FACE('',(#370),#23,.T.);
#408=ADVANCED_FACE('',(#371),#24,.T.);
#409=ADVANCED_FACE('',(#372),#391,.F.);
#410=ADVANCED_FACE('',(#373),#392,.F.);
#411=ADVANCED_FACE('',(#374),#393,.F.);
#412=ADVANCED_FACE('',(#375),#394,.F.);
#413=ADVANCED_FACE('',(#376),#395,.F.);
#414=ADVANCED_FACE('',(#377),#396,.F.);
#415=ADVANCED_FACE('',(#378,#379),#25,.F.);
#416=ADVANCED_FACE('',(#380,#381),#26,.F.);
#417=ADVANCED_FACE('',(#382,#383),#27,.F.);
#418=CLOSED_SHELL('',(#397,#398,#399,#400,#401,#402,#403,#404,#405,#406,
#407,#408,#409,#410,#411,#412,#413,#414,#415,#416,#417));
#419=STYLED_ITEM('',(#420),#427);
#420=PRESENTATION_STYLE_ASSIGNMENT((#421));
#421=SURFACE_STYLE_USAGE(.BOTH.,#422);
#422=SURFACE_SIDE_STYLE('',(#423));
#423=SURFACE_STYLE_FILL_AREA(#424);
#424=FILL_AREA_STYLE('',(#425));
#425=FILL_AREA_STYLE_COLOUR('',#426);
#426=COLOUR_RGB('',0.752941191196442,0.752941191196442,0.752941191196442);
#427=MANIFOLD_SOLID_BREP('',#418);
#428=SHAPE_DEFINITION_REPRESENTATION(#702,#429);
#429=SHAPE_REPRESENTATION(
'34516_040008540_Halteblech_Ansaugverteiler___-_00456658',(#430),#697);
#430=AXIS2_PLACEMENT_3D('',#582,#468,#469);
#431=AXIS2_PLACEMENT_3D('',#583,#470,#471);
#432=AXIS2_PLACEMENT_3D('',#591,#475,#476);
#433=AXIS2_PLACEMENT_3D('',#599,#480,#481);
#434=AXIS2_PLACEMENT_3D('',#600,#482,#483);
#435=AXIS2_PLACEMENT_3D('',#608,#487,#488);
#436=AXIS2_PLACEMENT_3D('',#616,#492,#493);
#437=AXIS2_PLACEMENT_3D('',#617,#494,#495);
#438=AXIS2_PLACEMENT_3D('',#618,#496,#497);
#439=AXIS2_PLACEMENT_3D('',#620,#498,#499);
#440=AXIS2_PLACEMENT_3D('',#622,#500,#501);
#441=AXIS2_PLACEMENT_3D('',#624,#502,#503);
#442=AXIS2_PLACEMENT_3D('',#628,#505,#506);
#443=AXIS2_PLACEMENT_3D('',#630,#508,#509);
#444=AXIS2_PLACEMENT_3D('',#636,#513,#514);
#445=AXIS2_PLACEMENT_3D('',#637,#515,#516);
#446=AXIS2_PLACEMENT_3D('',#639,#517,#518);
#447=AXIS2_PLACEMENT_3D('',#641,#519,#520);
#448=AXIS2_PLACEMENT_3D('',#643,#521,#522);
#449=AXIS2_PLACEMENT_3D('',#645,#524,#525);
#450=AXIS2_PLACEMENT_3D('',#646,#526,#527);
#451=AXIS2_PLACEMENT_3D('',#659,#534,#535);
#452=AXIS2_PLACEMENT_3D('',#661,#537,#538);
#453=AXIS2_PLACEMENT_3D('',#674,#545,#546);
#454=AXIS2_PLACEMENT_3D('',#676,#548,#549);
#455=AXIS2_PLACEMENT_3D('',#677,#550,#551);
#456=AXIS2_PLACEMENT_3D('',#678,#552,#553);
#457=AXIS2_PLACEMENT_3D('',#679,#554,#555);
#458=AXIS2_PLACEMENT_3D('',#680,#556,#557);
#459=AXIS2_PLACEMENT_3D('',#681,#558,#559);
#460=AXIS2_PLACEMENT_3D('',#684,#562,#563);
#461=AXIS2_PLACEMENT_3D('',#686,#565,#566);
#462=AXIS2_PLACEMENT_3D('',#688,#568,#569);
#463=AXIS2_PLACEMENT_3D('',#690,#571,#572);
#464=AXIS2_PLACEMENT_3D('',#692,#574,#575);
#465=AXIS2_PLACEMENT_3D('',#693,#576,#577);
#466=AXIS2_PLACEMENT_3D('',#694,#578,#579);
#467=AXIS2_PLACEMENT_3D('',#695,#580,#581);
#468=DIRECTION('',(0.,0.,1.));
#469=DIRECTION('',(1.,0.,0.));
#470=DIRECTION('',(-1.,-5.65528739086833E-17,0.));
#471=DIRECTION('',(5.65528739086833E-17,-1.,0.));
#472=DIRECTION('',(5.65528739086833E-17,-1.,0.));
#473=DIRECTION('',(0.,0.,1.));
#474=DIRECTION('',(5.65528739086833E-17,-1.,0.));
#475=DIRECTION('',(-1.,2.03287907341032E-17,0.));
#476=DIRECTION('',(0.,0.,1.));
#477=DIRECTION('',(0.,-6.12323399573677E-17,-1.));
#478=DIRECTION('',(-5.65528739086833E-17,1.,-6.12323399573677E-17));
#479=DIRECTION('',(0.,-6.12323399573677E-17,-1.));
#480=DIRECTION('',(-1.,2.03287907341032E-17,0.));
#481=DIRECTION('',(-2.03287907341032E-17,-1.,0.));
#482=DIRECTION('',(1.,0.,0.));
#483=DIRECTION('',(0.,0.,-1.));
#484=DIRECTION('',(0.,1.,0.));
#485=DIRECTION('',(0.,0.,1.));
#486=DIRECTION('',(0.,1.,0.));
#487=DIRECTION('',(-1.,2.03287907341032E-17,0.));
#488=DIRECTION('',(-2.03287907341032E-17,-1.,0.));
#489=DIRECTION('',(-7.68394785645078E-17,6.12323399573677E-17,1.));
#490=DIRECTION('',(0.,1.,-6.12323399573677E-17));
#491=DIRECTION('',(-7.68394785645078E-17,6.12323399573677E-17,1.));
#492=DIRECTION('',(1.,-2.03287907341032E-17,0.));
#493=DIRECTION('',(0.,0.,1.));
#494=DIRECTION('',(0.,0.,1.));
#495=DIRECTION('',(1.,0.,0.));
#496=DIRECTION('',(0.,0.,1.));
#497=DIRECTION('',(1.,0.,0.));
#498=DIRECTION('',(0.,0.,1.));
#499=DIRECTION('',(1.,0.,0.));
#500=DIRECTION('',(0.,0.,1.));
#501=DIRECTION('',(1.,0.,0.));
#502=DIRECTION('',(0.,0.,1.));
#503=DIRECTION('',(1.,0.,0.));
#504=DIRECTION('',(-1.,-2.16840434497101E-16,0.));
#505=DIRECTION('',(0.,0.,1.));
#506=DIRECTION('',(1.,0.,0.));
#507=DIRECTION('',(-1.,0.,0.));
#508=DIRECTION('',(-2.16840434497101E-16,1.,0.));
#509=DIRECTION('',(-1.,-2.16840434497101E-16,0.));
#510=DIRECTION('',(0.,0.,1.));
#511=DIRECTION('',(-1.,-2.16840434497101E-16,0.));
#512=DIRECTION('',(0.,0.,1.));
#513=DIRECTION('',(0.,0.,1.));
#514=DIRECTION('',(1.,0.,0.));
#515=DIRECTION('',(0.,0.,1.));
#516=DIRECTION('',(1.,0.,0.));
#517=DIRECTION('',(0.,0.,1.));
#518=DIRECTION('',(1.,0.,0.));
#519=DIRECTION('',(0.,0.,1.));
#520=DIRECTION('',(1.,0.,0.));
#521=DIRECTION('',(0.,0.,1.));
#522=DIRECTION('',(1.,0.,0.));
#523=DIRECTION('',(-1.,0.,0.));
#524=DIRECTION('',(0.,0.,1.));
#525=DIRECTION('',(1.,0.,0.));
#526=DIRECTION('',(0.,-1.,6.12323399573677E-17));
#527=DIRECTION('',(0.,-6.12323399573677E-17,-1.));
#528=DIRECTION('',(-1.,-8.65790477485086E-32,-1.41394315175263E-15));
#529=DIRECTION('',(-0.500000000000002,5.30287619362453E-17,0.866025403784438));
#530=DIRECTION('',(0.499999999999998,5.30287619362454E-17,0.86602540378444));
#531=DIRECTION('',(1.,4.87007143585359E-32,7.95343022860849E-16));
#532=DIRECTION('',(0.5,-5.30287619362453E-17,-0.866025403784439));
#533=DIRECTION('',(-0.5,-5.30287619362453E-17,-0.866025403784438));
#534=DIRECTION('',(0.,-1.,6.12323399573677E-17));
#535=DIRECTION('',(0.,-6.12323399573677E-17,-1.));
#536=DIRECTION('',(1.,0.,0.));
#537=DIRECTION('',(0.,-1.,6.12323399573677E-17));
#538=DIRECTION('',(0.,-6.12323399573677E-17,-1.));
#539=DIRECTION('',(0.500000000000002,-5.30287619362453E-17,-0.866025403784437));
#540=DIRECTION('',(1.,8.65790477485086E-32,1.41394315175263E-15));
#541=DIRECTION('',(0.5,5.30287619362453E-17,0.866025403784438));
#542=DIRECTION('',(-0.5,5.30287619362453E-17,0.866025403784438));
#543=DIRECTION('',(-1.,-4.87007143585359E-32,-7.95343022860849E-16));
#544=DIRECTION('',(-0.499999999999998,-5.30287619362454E-17,-0.86602540378444));
#545=DIRECTION('',(0.,-1.,6.12323399573677E-17));
#546=DIRECTION('',(0.,-6.12323399573677E-17,-1.));
#547=DIRECTION('',(1.,0.,0.));
#548=DIRECTION('',(-1.,2.03287907341032E-17,0.));
#549=DIRECTION('',(0.,0.,1.));
#550=DIRECTION('',(-1.,2.03287907341032E-17,0.));
#551=DIRECTION('',(0.,0.,1.));
#552=DIRECTION('',(5.65528739086833E-17,-1.,6.12323399573677E-17));
#553=DIRECTION('',(0.,-6.12323399573677E-17,-1.));
#554=DIRECTION('',(0.,0.,1.));
#555=DIRECTION('',(1.,0.,0.));
#556=DIRECTION('',(0.,0.,1.));
#557=DIRECTION('',(1.,0.,0.));
#558=DIRECTION('',(-1.41394315175263E-15,6.12323399573677E-17,1.));
#559=DIRECTION('',(1.,0.,1.41394315175263E-15));
#560=DIRECTION('',(0.,1.,-6.12323399573677E-17));
#561=DIRECTION('',(0.,1.,-6.12323399573677E-17));
#562=DIRECTION('',(0.866025403784437,3.0616169978684E-17,0.500000000000002));
#563=DIRECTION('',(0.500000000000002,0.,-0.866025403784438));
#564=DIRECTION('',(0.,1.,-6.12323399573677E-17));
#565=DIRECTION('',(0.86602540378444,-3.06161699786837E-17,-0.499999999999998));
#566=DIRECTION('',(-0.499999999999998,0.,-0.86602540378444));
#567=DIRECTION('',(0.,1.,-6.12323399573677E-17));
#568=DIRECTION('',(7.95343022860849E-16,-6.12323399573677E-17,-1.));
#569=DIRECTION('',(-1.,0.,-7.95343022860849E-16));
#570=DIRECTION('',(0.,1.,-6.12323399573677E-17));
#571=DIRECTION('',(-0.866025403784438,-3.06161699786839E-17,-0.5));
#572=DIRECTION('',(-0.5,0.,0.866025403784439));
#573=DIRECTION('',(0.,1.,-6.12323399573677E-17));
#574=DIRECTION('',(-0.866025403784438,3.06161699786839E-17,0.5));
#575=DIRECTION('',(0.5,0.,0.866025403784438));
#576=DIRECTION('',(0.,0.,1.));
#577=DIRECTION('',(1.,0.,0.));
#578=DIRECTION('',(0.,0.,1.));
#579=DIRECTION('',(1.,0.,0.));
#580=DIRECTION('',(0.,0.,1.));
#581=DIRECTION('',(1.,0.,0.));
#582=CARTESIAN_POINT('',(0.,0.,0.));
#583=CARTESIAN_POINT('',(-1.21779275737425E-15,80.,-2.));
#584=CARTESIAN_POINT('',(-1.21779275737425E-15,80.,0.));
#585=CARTESIAN_POINT('',(-6.52264018287414E-16,70.,0.));
#586=CARTESIAN_POINT('',(3.24988428141174E-15,1.,0.));
#587=CARTESIAN_POINT('',(-6.52264018287414E-16,70.,-2.));
#588=CARTESIAN_POINT('',(-6.52264018287414E-16,70.,-2.));
#589=CARTESIAN_POINT('',(-1.21779275737425E-15,80.,-2.));
#590=CARTESIAN_POINT('',(0.,1.,-2.));
#591=CARTESIAN_POINT('',(0.,1.,1.));
#592=CARTESIAN_POINT('',(3.69030878534246E-32,-2.,1.));
#593=CARTESIAN_POINT('',(7.38061757068492E-32,-2.,-0.303760951239768));
#594=CARTESIAN_POINT('',(7.38061757068492E-32,-2.,58.));
#595=CARTESIAN_POINT('',(6.93889390390723E-15,-1.80969196507787E-15,58.));
#596=CARTESIAN_POINT('',(0.,3.55147571752732E-15,58.));
#597=CARTESIAN_POINT('',(0.,-1.85999938320869E-17,-0.303760951239768));
#598=CARTESIAN_POINT('',(0.,6.12323399573675E-17,0.999999999999999));
#599=CARTESIAN_POINT('',(0.,1.,1.));
#600=CARTESIAN_POINT('',(64.,0.,-2.));
#601=CARTESIAN_POINT('',(64.,0.,-2.));
#602=CARTESIAN_POINT('',(64.,1.,-2.));
#603=CARTESIAN_POINT('',(64.,70.,-2.));
#604=CARTESIAN_POINT('',(64.,70.,-2.));
#605=CARTESIAN_POINT('',(64.,70.,0.));
#606=CARTESIAN_POINT('',(64.,0.,0.));
#607=CARTESIAN_POINT('',(64.,1.,0.));
#608=CARTESIAN_POINT('',(64.,1.,1.));
#609=CARTESIAN_POINT('',(64.,0.,0.999999999999999));
#610=CARTESIAN_POINT('',(64.,-1.85999938320869E-17,-0.303760951239768));
#611=CARTESIAN_POINT('',(64.,3.55147571752732E-15,58.));
#612=CARTESIAN_POINT('',(64.,-2.,58.));
#613=CARTESIAN_POINT('',(64.,-2.,58.));
#614=CARTESIAN_POINT('',(64.,-2.,-0.303760951239768));
#615=CARTESIAN_POINT('',(64.,-2.,0.999999999999999));
#616=CARTESIAN_POINT('',(64.,1.,1.));
#617=CARTESIAN_POINT('',(0.,0.,-2.));
#618=CARTESIAN_POINT('',(32.,20.,-2.));
#619=CARTESIAN_POINT('',(36.25,20.,-2.));
#620=CARTESIAN_POINT('',(54.,70.,-2.));
#621=CARTESIAN_POINT('',(58.25,70.,-2.));
#622=CARTESIAN_POINT('',(9.99999999999999,70.,-2.));
#623=CARTESIAN_POINT('',(14.25,70.,-2.));
#624=CARTESIAN_POINT('',(9.99999999999999,70.,-2.));
#625=CARTESIAN_POINT('',(9.99999999999999,80.,-2.));
#626=CARTESIAN_POINT('',(64.,80.,-2.));
#627=CARTESIAN_POINT('',(54.,80.,-2.));
#628=CARTESIAN_POINT('',(54.,70.,-2.));
#629=CARTESIAN_POINT('',(64.,1.,-2.));
#630=CARTESIAN_POINT('',(64.,80.,-2.));
#631=CARTESIAN_POINT('',(9.99999999999999,80.,-2.));
#632=CARTESIAN_POINT('',(9.99999999999999,80.,0.));
#633=CARTESIAN_POINT('',(64.,80.,0.));
#634=CARTESIAN_POINT('',(54.,80.,0.));
#635=CARTESIAN_POINT('',(54.,80.,-2.));
#636=CARTESIAN_POINT('',(0.,0.,0.));
#637=CARTESIAN_POINT('',(32.,20.,0.));
#638=CARTESIAN_POINT('',(36.25,20.,0.));
#639=CARTESIAN_POINT('',(54.,70.,0.));
#640=CARTESIAN_POINT('',(58.25,70.,0.));
#641=CARTESIAN_POINT('',(9.99999999999999,70.,0.));
#642=CARTESIAN_POINT('',(14.25,70.,0.));
#643=CARTESIAN_POINT('',(9.99999999999999,70.,0.));
#644=CARTESIAN_POINT('',(64.,1.,0.));
#645=CARTESIAN_POINT('',(54.,70.,0.));
#646=CARTESIAN_POINT('',(7.38061757068492E-32,-2.,1.22464679914735E-16));
#647=CARTESIAN_POINT('',(-9.40272195915495E-14,-2.,66.5));
#648=CARTESIAN_POINT('',(36.9074772881118,-2.,66.5));
#649=CARTESIAN_POINT('',(27.0925227118882,-2.,66.5));
#650=CARTESIAN_POINT('',(56.4759526419164,-2.,32.6064064605512));
#651=CARTESIAN_POINT('',(41.8149545762236,-2.,58.));
#652=CARTESIAN_POINT('',(6.24647922241913,-2.,-3.60640646055107));
#653=CARTESIAN_POINT('',(36.9074772881118,-2.,49.5));
#654=CARTESIAN_POINT('',(-3.9369479631612E-14,-2.,49.5));
#655=CARTESIAN_POINT('',(27.0925227118882,-2.,49.5));
#656=CARTESIAN_POINT('',(41.753520777581,-2.,24.106406460551));
#657=CARTESIAN_POINT('',(22.1850454237764,-2.,58.));
#658=CARTESIAN_POINT('',(-8.47595264191647,-2.,4.893593539449));
#659=CARTESIAN_POINT('',(32.,-2.,58.));
#660=CARTESIAN_POINT('',(3.69030878534246E-32,-2.,1.));
#661=CARTESIAN_POINT('',(0.,-6.92131073764163E-32,4.23808052037851E-48));
#662=CARTESIAN_POINT('',(36.9074772881118,4.07195060716495E-15,66.5));
#663=CARTESIAN_POINT('',(36.9074772881118,4.07195060716495E-15,66.5));
#664=CARTESIAN_POINT('',(41.8149545762236,3.55147571752732E-15,58.));
#665=CARTESIAN_POINT('',(27.0925227118882,4.07195060716495E-15,66.5));
#666=CARTESIAN_POINT('',(27.0925227118882,4.07195060716495E-15,66.5));
#667=CARTESIAN_POINT('',(22.1850454237764,3.55147571752732E-15,58.));
#668=CARTESIAN_POINT('',(22.1850454237764,3.55147571752732E-15,58.));
#669=CARTESIAN_POINT('',(27.0925227118882,3.0310008278897E-15,49.5));
#670=CARTESIAN_POINT('',(27.0925227118882,3.0310008278897E-15,49.5));
#671=CARTESIAN_POINT('',(36.9074772881118,3.0310008278897E-15,49.5));
#672=CARTESIAN_POINT('',(36.9074772881118,3.0310008278897E-15,49.5));
#673=CARTESIAN_POINT('',(41.8149545762236,3.55147571752733E-15,58.));
#674=CARTESIAN_POINT('',(32.,0.,58.));
#675=CARTESIAN_POINT('',(3.69030878534246E-32,0.,0.999999999999999));
#676=CARTESIAN_POINT('',(64.,1.,1.));
#677=CARTESIAN_POINT('',(64.,1.,1.));
#678=CARTESIAN_POINT('',(32.,80.,58.));
#679=CARTESIAN_POINT('',(9.99999999999999,70.,-2.));
#680=CARTESIAN_POINT('',(54.,70.,-2.));
#681=CARTESIAN_POINT('',(27.0925227118882,-138.86684269472,66.5));
#682=CARTESIAN_POINT('',(27.0925227118882,-138.86684269472,66.5));
#683=CARTESIAN_POINT('',(36.9074772881118,-138.86684269472,66.5));
#684=CARTESIAN_POINT('',(36.9074772881118,-138.86684269472,66.5));
#685=CARTESIAN_POINT('',(41.8149545762236,-138.86684269472,58.));
#686=CARTESIAN_POINT('',(41.8149545762236,-138.86684269472,58.));
#687=CARTESIAN_POINT('',(36.9074772881118,-138.86684269472,49.5));
#688=CARTESIAN_POINT('',(36.9074772881118,-138.86684269472,49.5));
#689=CARTESIAN_POINT('',(27.0925227118882,-138.86684269472,49.5));
#690=CARTESIAN_POINT('',(27.0925227118882,-138.86684269472,49.5));
#691=CARTESIAN_POINT('',(22.1850454237764,-138.86684269472,58.));
#692=CARTESIAN_POINT('',(22.1850454237764,-138.86684269472,58.));
#693=CARTESIAN_POINT('',(9.99999999999999,70.,-138.86684269472));
#694=CARTESIAN_POINT('',(54.,70.,-138.86684269472));
#695=CARTESIAN_POINT('',(32.,20.,-138.86684269472));
#696=MECHANICAL_DESIGN_GEOMETRIC_PRESENTATION_REPRESENTATION('',(#419),
#697);
#697=(
GEOMETRIC_REPRESENTATION_CONTEXT(3)
GLOBAL_UNCERTAINTY_ASSIGNED_CONTEXT((#698))
GLOBAL_UNIT_ASSIGNED_CONTEXT((#701,#700,#699))
REPRESENTATION_CONTEXT(
'34516_040008540_Halteblech_Ansaugverteiler___-_00456658',
'TOP_LEVEL_ASSEMBLY_PART')
);
#698=UNCERTAINTY_MEASURE_WITH_UNIT(LENGTH_MEASURE(0.005),#701,
'DISTANCE_ACCURACY_VALUE','Maximum Tolerance applied to model');
#699=(
NAMED_UNIT(*)
SI_UNIT($,.STERADIAN.)
SOLID_ANGLE_UNIT()
);
#700=(
NAMED_UNIT(*)
PLANE_ANGLE_UNIT()
SI_UNIT($,.RADIAN.)
);
#701=(
LENGTH_UNIT()
NAMED_UNIT(*)
SI_UNIT(.MILLI.,.METRE.)
);
#702=PRODUCT_DEFINITION_SHAPE('','',#703);
#703=PRODUCT_DEFINITION('','',#705,#704);
#704=PRODUCT_DEFINITION_CONTEXT('',#711,'design');
#705=PRODUCT_DEFINITION_FORMATION_WITH_SPECIFIED_SOURCE('','',#707,
 .NOT_KNOWN.);
#706=PRODUCT_RELATED_PRODUCT_CATEGORY('','',(#707));
#707=PRODUCT('34516_040008540_Halteblech_Ansaugverteiler___-_00456658',
'34516_040008540_Halteblech_Ansaugverteiler___-_00456658',
'34516_040008540_Halteblech_Ansaugverteiler___-_00456658',(#709));
#708=PRODUCT_CATEGORY('','');
#709=PRODUCT_CONTEXT('',#711,'mechanical');
#710=APPLICATION_PROTOCOL_DEFINITION('international standard',
'automotive_design',2010,#711);
#711=APPLICATION_CONTEXT(
'core data for automotive mechanical design processes');
ENDSEC;
END-ISO-10303-21;
